  0
SECTION
  2
HEADER
  9
$ACADVER
  1
AC1009
  9
$INSBASE
 10
0.000000
 20
0.000000
  9
$LIMMIN
 10
-90.014500
 20
-168.760400
  9
$LIMMAX
 10
620.000000
 20
630.000000
  9
$EXTMIN
 10
-90.014500
 20
-168.760400
  9
$EXTMAX
 10
620.000000
 20
630.000000
  9
$ATTMODE
 70
0
  9
$LUNITS
 70
2
  9
$LUPREC
 70
4
  9
$THICKNESS
 40
0.283200
  0
ENDSEC
  0
SECTION
  2
TABLES
  0
TABLE
  2
LTYPE
 70
1
  0
LTYPE
  3
Solid Line
  2
CONTINUOUS
 70
0
 72
65
 73
0
 40
0.000000
  0
ENDTAB
  0
TABLE
  2
LAYER
 70
13
  0
LAYER
  2
BG_SOLDERMASK_TOP
 70
0
 62
3
  6
CONTINUOUS
  0
LAYER
  2
BG_SILKSCREEN_TOP
 70
0
 62
1
  6
CONTINUOUS
  0
LAYER
  2
BG_OUTLINE
 70
0
 62
7
  6
CONTINUOUS
  0
LAYER
  2
ET_TOP
 70
0
 62
140
  6
CONTINUOUS
  0
LAYER
  2
MA_NCLEGEND-1-2
 70
0
 62
9
  6
CONTINUOUS
  0
LAYER
  2
PG_SOLDERMASK_TOP
 70
0
 62
3
  6
CONTINUOUS
  0
LAYER
  2
PG_SILKSCREEN_TOP
 70
0
 62
1
  6
CONTINUOUS
  0
LAYER
  2
PIN_TOP
 70
0
 62
140
  6
CONTINUOUS
  0
LAYER
  2
PIN_SOLDERMASK_TOP
 70
0
 62
3
  6
CONTINUOUS
  0
LAYER
  2
RD_SILKSCREEN_TOP
 70
0
 62
1
  6
CONTINUOUS
  0
LAYER
  2
VC_TOP
 70
0
 62
140
  6
CONTINUOUS
  0
LAYER
  2
VC_SOLDERMASK_TOP
 70
0
 62
3
  6
CONTINUOUS
  0
LAYER
  2
PLAN_TOP
 70
0
 62
140
  6
CONTINUOUS
  0
ENDTAB
  0
TABLE
  2
STYLE
 70
1
  0
STYLE
  2
STANDARD
 70
0
 40
0.000000
 41
1.000000
 50
0.000000
 71
0
 42
0.200000
  3
txt
  0
ENDTAB
  0
ENDSEC
  0
SECTION
  2
BLOCKS
  0
BLOCK
  8
0
  2
FIGURE_CIRCLE
 70
0
 10
0.000000
 20
0.000000
  0
CIRCLE
  8
0
 10
0.000000
 20
0.000000
 40
0.500000
  0
ENDBLK
  0
BLOCK
  8
0
  2
FIGURE_SQUARE
 70
0
 10
0.000000
 20
0.000000
  0
POLYLINE
  8
0
 66
1
 70
1
 40
0.000000
 41
0.000000
 39
0.000000
  0
VERTEX
  8
0
 10
-0.500000
 20
-0.500000
 40
0.000000
 41
0.000000
 42
0.000000
  0
VERTEX
  8
0
 10
-0.500000
 20
0.500000
 40
0.000000
 41
0.000000
 42
0.000000
  0
VERTEX
  8
0
 10
0.500000
 20
0.500000
 40
0.000000
 41
0.000000
 42
0.000000
  0
VERTEX
  8
0
 10
0.500000
 20
-0.500000
 40
0.000000
 41
0.000000
 42
0.000000
  0
SEQEND
  0
ENDBLK
  0
BLOCK
  8
0
  2
FIGURE_HEX
 70
0
 10
0.000000
 20
0.000000
  0
POLYLINE
  8
0
 66
1
 70
1
 40
0.000000
 41
0.000000
 39
0.000000
  0
VERTEX
  8
0
 10
-0.500000
 20
0.000000
 40
0.000000
 41
0.000000
 42
0.000000
  0
VERTEX
  8
0
 10
-0.250000
 20
0.500000
 40
0.000000
 41
0.000000
 42
0.000000
  0
VERTEX
  8
0
 10
0.250000
 20
0.500000
 40
0.000000
 41
0.000000
 42
0.000000
  0
VERTEX
  8
0
 10
0.500000
 20
0.000000
 40
0.000000
 41
0.000000
 42
0.000000
  0
VERTEX
  8
0
 10
0.250000
 20
-0.500000
 40
0.000000
 41
0.000000
 42
0.000000
  0
VERTEX
  8
0
 10
-0.250000
 20
-0.500000
 40
0.000000
 41
0.000000
 42
0.000000
  0
SEQEND
  0
ENDBLK
  0
BLOCK
  8
0
  2
FIGURE_OCT
 70
0
 10
0.000000
 20
0.000000
  0
POLYLINE
  8
0
 66
1
 70
1
 40
0.000000
 41
0.000000
 39
0.000000
  0
VERTEX
  8
0
 10
-0.500000
 20
-0.207100
 40
0.000000
 41
0.000000
 42
0.000000
  0
VERTEX
  8
0
 10
-0.500000
 20
0.207100
 40
0.000000
 41
0.000000
 42
0.000000
  0
VERTEX
  8
0
 10
-0.207100
 20
0.500000
 40
0.000000
 41
0.000000
 42
0.000000
  0
VERTEX
  8
0
 10
0.207100
 20
0.500000
 40
0.000000
 41
0.000000
 42
0.000000
  0
VERTEX
  8
0
 10
0.500000
 20
0.207100
 40
0.000000
 41
0.000000
 42
0.000000
  0
VERTEX
  8
0
 10
0.500000
 20
-0.207100
 40
0.000000
 41
0.000000
 42
0.000000
  0
VERTEX
  8
0
 10
0.207100
 20
-0.500000
 40
0.000000
 41
0.000000
 42
0.000000
  0
VERTEX
  8
0
 10
-0.207100
 20
-0.500000
 40
0.000000
 41
0.000000
 42
0.000000
  0
SEQEND
  0
ENDBLK
  0
BLOCK
  8
0
  2
FIGURE_OBLONG
 70
0
 10
0.000000
 20
0.000000
  0
POLYLINE
  8
0
 66
1
 70
1
 40
0.000000
 41
0.000000
 39
0.000000
  0
VERTEX
  8
0
 10
-0.500000
 20
-0.125000
 40
0.000000
 41
0.000000
 42
0.000000
  0
VERTEX
  8
0
 10
-0.500000
 20
0.125000
 40
0.000000
 41
0.000000
 42
0.000000
  0
VERTEX
  8
0
 10
-0.416000
 20
0.375000
 40
0.000000
 41
0.000000
 42
0.000000
  0
VERTEX
  8
0
 10
-0.250000
 20
0.500000
 40
0.000000
 41
0.000000
 42
0.000000
  0
VERTEX
  8
0
 10
0.250000
 20
0.500000
 40
0.000000
 41
0.000000
 42
0.000000
  0
VERTEX
  8
0
 10
0.416000
 20
0.375000
 40
0.000000
 41
0.000000
 42
0.000000
  0
VERTEX
  8
0
 10
0.500000
 20
0.125000
 40
0.000000
 41
0.000000
 42
0.000000
  0
VERTEX
  8
0
 10
0.500000
 20
-0.125000
 40
0.000000
 41
0.000000
 42
0.000000
  0
VERTEX
  8
0
 10
0.416000
 20
-0.375000
 40
0.000000
 41
0.000000
 42
0.000000
  0
VERTEX
  8
0
 10
0.250000
 20
-0.500000
 40
0.000000
 41
0.000000
 42
0.000000
  0
VERTEX
  8
0
 10
-0.250000
 20
-0.500000
 40
0.000000
 41
0.000000
 42
0.000000
  0
VERTEX
  8
0
 10
-0.416000
 20
-0.375000
 40
0.000000
 41
0.000000
 42
0.000000
  0
SEQEND
  0
ENDBLK
  0
BLOCK
  8
0
  2
FIGURE_TRI
 70
0
 10
0.000000
 20
0.000000
  0
POLYLINE
  8
0
 66
1
 70
1
 40
0.000000
 41
0.000000
 39
0.000000
  0
VERTEX
  8
0
 10
-0.500000
 20
-0.500000
 40
0.000000
 41
0.000000
 42
0.000000
  0
VERTEX
  8
0
 10
0.000000
 20
0.500000
 40
0.000000
 41
0.000000
 42
0.000000
  0
VERTEX
  8
0
 10
0.500000
 20
-0.500000
 40
0.000000
 41
0.000000
 42
0.000000
  0
SEQEND
  0
ENDBLK
  0
BLOCK
  8
0
  2
FIGURE_CROSS
 70
0
 10
0.000000
 20
0.000000
  0
POLYLINE
  8
0
 66
1
 70
0
 40
0.000000
 41
0.000000
 39
0.000000
  0
VERTEX
  8
0
 10
-0.500000
 20
0.000000
 40
0.000000
 41
0.000000
 42
0.000000
  0
VERTEX
  8
0
 10
0.500000
 20
0.000000
 40
0.000000
 41
0.000000
 42
0.000000
  0
SEQEND
  0
POLYLINE
  8
0
 66
1
 70
0
 40
0.000000
 41
0.000000
 39
0.000000
  0
VERTEX
  8
0
 10
0.000000
 20
0.500000
 40
0.000000
 41
0.000000
 42
0.000000
  0
VERTEX
  8
0
 10
0.000000
 20
-0.500000
 40
0.000000
 41
0.000000
 42
0.000000
  0
SEQEND
  0
ENDBLK
  0
BLOCK
  8
0
  2
FIGURE_DIAMOND
 70
0
 10
0.000000
 20
0.000000
  0
POLYLINE
  8
0
 66
1
 70
1
 40
0.000000
 41
0.000000
 39
0.000000
  0
VERTEX
  8
0
 10
-0.500000
 20
0.000000
 40
0.000000
 41
0.000000
 42
0.000000
  0
VERTEX
  8
0
 10
0.000000
 20
0.500000
 40
0.000000
 41
0.000000
 42
0.000000
  0
VERTEX
  8
0
 10
0.500000
 20
0.000000
 40
0.000000
 41
0.000000
 42
0.000000
  0
VERTEX
  8
0
 10
0.000000
 20
-0.500000
 40
0.000000
 41
0.000000
 42
0.000000
  0
SEQEND
  0
ENDBLK
  0
ENDSEC
  0
SECTION
  2
ENTITIES
  0
POLYLINE
  8
ET_TOP
 66
1
 70
1
 40
0.000000
 41
0.000000
 39
0.000000
  0
VERTEX
  8
ET_TOP
 10
20.062600
 20
7.876300
 40
0.000000
 41
0.000000
 42
-0.236181
  0
VERTEX
  8
ET_TOP
 10
20.112700
 20
7.776300
 40
0.000000
 41
0.000000
 42
0.000000
  0
VERTEX
  8
ET_TOP
 10
20.112700
 20
7.512000
 40
0.000000
 41
0.000000
 42
-0.131238
  0
VERTEX
  8
ET_TOP
 10
20.096000
 20
7.449700
 40
0.000000
 41
0.000000
 42
0.000000
  0
VERTEX
  8
ET_TOP
 10
20.083800
 20
7.428400
 40
0.000000
 41
0.000000
 42
0.000000
  0
VERTEX
  8
ET_TOP
 10
20.081300
 20
7.424000
 40
0.000000
 41
0.000000
 42
0.000000
  0
VERTEX
  8
ET_TOP
 10
17.418200
 20
2.811600
 40
0.000000
 41
0.000000
 42
0.000000
  0
VERTEX
  8
ET_TOP
 10
17.418100
 20
2.811400
 40
0.000000
 41
0.000000
 42
-0.267342
  0
VERTEX
  8
ET_TOP
 10
17.310000
 20
2.749100
 40
0.000000
 41
0.000000
 42
0.000000
  0
VERTEX
  8
ET_TOP
 10
17.276500
 20
2.749100
 40
0.000000
 41
0.000000
 42
0.000000
  0
VERTEX
  8
ET_TOP
 10
17.247600
 20
2.765800
 40
0.000000
 41
0.000000
 42
-0.131639
  0
VERTEX
  8
ET_TOP
 10
17.201800
 20
2.811500
 40
0.000000
 41
0.000000
 42
0.000000
  0
VERTEX
  8
ET_TOP
 10
17.181500
 20
2.846700
 40
0.000000
 41
0.000000
 42
0.267949
  0
VERTEX
  8
ET_TOP
 10
15.362800
 20
3.896800
 40
0.000000
 41
0.000000
 42
0.000000
  0
VERTEX
  8
ET_TOP
 10
15.362700
 20
3.896800
 40
0.000000
 41
0.000000
 42
0.577334
  0
VERTEX
  8
ET_TOP
 10
13.544000
 20
0.746700
 40
0.000000
 41
0.000000
 42
0.000000
  0
VERTEX
  8
ET_TOP
 10
13.547700
 20
0.740300
 40
0.000000
 41
0.000000
 42
-0.131421
  0
VERTEX
  8
ET_TOP
 10
13.564400
 20
0.677900
 40
0.000000
 41
0.000000
 42
0.000000
  0
VERTEX
  8
ET_TOP
 10
13.564400
 20
0.649000
 40
0.000000
 41
0.000000
 42
-0.414214
  0
VERTEX
  8
ET_TOP
 10
13.439400
 20
0.524000
 40
0.000000
 41
0.000000
 42
0.000000
  0
VERTEX
  8
ET_TOP
 10
7.769400
 20
0.524000
 40
0.000000
 41
0.000000
 42
-0.267874
  0
VERTEX
  8
ET_TOP
 10
7.661200
 20
0.586500
 40
0.000000
 41
0.000000
 42
0.000000
  0
VERTEX
  8
ET_TOP
 10
7.653000
 20
0.600600
 40
0.000000
 41
0.000000
 42
0.000000
  0
VERTEX
  8
ET_TOP
 10
7.644400
 20
0.632500
 40
0.000000
 41
0.000000
 42
0.000000
  0
VERTEX
  8
ET_TOP
 10
7.644400
 20
0.648900
 40
0.000000
 41
0.000000
 42
-0.131421
  0
VERTEX
  8
ET_TOP
 10
7.661100
 20
0.711300
 40
0.000000
 41
0.000000
 42
0.000000
  0
VERTEX
  8
ET_TOP
 10
7.681500
 20
0.746700
 40
0.000000
 41
0.000000
 42
1.000000
  0
VERTEX
  8
ET_TOP
 10
4.044000
 20
2.846700
 40
0.000000
 41
0.000000
 42
0.000000
  0
VERTEX
  8
ET_TOP
 10
4.024700
 20
2.813300
 40
0.000000
 41
0.000000
 42
-0.271865
  0
VERTEX
  8
ET_TOP
 10
3.915600
 20
2.749100
 40
0.000000
 41
0.000000
 42
0.000000
  0
VERTEX
  8
ET_TOP
 10
3.882000
 20
2.749100
 40
0.000000
 41
0.000000
 42
0.000000
  0
VERTEX
  8
ET_TOP
 10
3.853000
 20
2.765800
 40
0.000000
 41
0.000000
 42
-0.131805
  0
VERTEX
  8
ET_TOP
 10
3.807200
 20
2.811600
 40
0.000000
 41
0.000000
 42
0.000000
  0
VERTEX
  8
ET_TOP
 10
0.965500
 20
7.733600
 40
0.000000
 41
0.000000
 42
-0.205962
  0
VERTEX
  8
ET_TOP
 10
0.951500
 20
7.831400
 40
0.000000
 41
0.000000
 42
-0.164354
  0
VERTEX
  8
ET_TOP
 10
0.996000
 20
7.897900
 40
0.000000
 41
0.000000
 42
-0.165364
  0
VERTEX
  8
ET_TOP
 10
1.072200
 20
7.923800
 40
0.000000
 41
0.000000
 42
0.000000
  0
VERTEX
  8
ET_TOP
 10
1.112800
 20
7.923800
 40
0.000000
 41
0.000000
 42
0.249389
  0
VERTEX
  8
ET_TOP
 10
2.854100
 20
8.850000
 40
0.000000
 41
0.000000
 42
0.122453
  0
VERTEX
  8
ET_TOP
 10
3.201100
 20
9.802200
 40
0.000000
 41
0.000000
 42
0.000000
  0
VERTEX
  8
ET_TOP
 10
3.201100
 20
9.802300
 40
0.000000
 41
0.000000
 42
-0.185109
  0
VERTEX
  8
ET_TOP
 10
3.241800
 20
9.882000
 40
0.000000
 41
0.000000
 42
0.000000
  0
VERTEX
  8
ET_TOP
 10
3.259000
 20
9.897500
 40
0.000000
 41
0.000000
 42
0.000000
  0
VERTEX
  8
ET_TOP
 10
3.302100
 20
9.914000
 40
0.000000
 41
0.000000
 42
0.000000
  0
VERTEX
  8
ET_TOP
 10
17.899900
 20
9.914000
 40
0.000000
 41
0.000000
 42
-0.186028
  0
VERTEX
  8
ET_TOP
 10
17.983800
 20
9.881700
 40
0.000000
 41
0.000000
 42
0.000000
  0
VERTEX
  8
ET_TOP
 10
18.001000
 20
9.866100
 40
0.000000
 41
0.000000
 42
0.000000
  0
VERTEX
  8
ET_TOP
 10
18.022000
 20
9.824600
 40
0.000000
 41
0.000000
 42
0.000000
  0
VERTEX
  8
ET_TOP
 10
18.024300
 20
9.801500
 40
0.000000
 41
0.000000
 42
0.001004
  0
VERTEX
  8
ET_TOP
 10
18.027600
 20
9.769000
 40
0.000000
 41
0.000000
 42
0.000000
  0
VERTEX
  8
ET_TOP
 10
18.035200
 20
9.717400
 40
0.000000
 41
0.000000
 42
0.112136
  0
VERTEX
  8
ET_TOP
 10
18.371400
 20
8.850000
 40
0.000000
 41
0.000000
 42
0.229991
  0
VERTEX
  8
ET_TOP
 10
19.958700
 20
7.929400
 40
0.000000
 41
0.000000
 42
0.000000
  0
VERTEX
  8
ET_TOP
 10
19.976600
 20
7.928100
 40
0.000000
 41
0.000000
 42
0.000000
  0
VERTEX
  8
ET_TOP
 10
19.993300
 20
7.921900
 40
0.000000
 41
0.000000
 42
-0.071518
  0
VERTEX
  8
ET_TOP
 10
20.024500
 20
7.904800
 40
0.000000
 41
0.000000
 42
0.000000
  0
SEQEND
  0
POLYLINE
  8
ET_TOP
 66
1
 70
1
 40
0.000000
 41
0.000000
 39
0.000000
  0
VERTEX
  8
ET_TOP
 10
14.350200
 20
4.500000
 40
0.000000
 41
0.000000
 42
1.000000
  0
VERTEX
  8
ET_TOP
 10
12.949800
 20
4.500000
 40
0.000000
 41
0.000000
 42
1.000000
  0
SEQEND
  0
POLYLINE
  8
ET_TOP
 66
1
 70
1
 40
0.000000
 41
0.000000
 39
0.000000
  0
VERTEX
  8
ET_TOP
 10
1.112800
 20
12.124000
 40
0.000000
 41
0.000000
 42
0.000000
  0
VERTEX
  8
ET_TOP
 10
1.072200
 20
12.124000
 40
0.000000
 41
0.000000
 42
-0.268038
  0
VERTEX
  8
ET_TOP
 10
0.963900
 20
12.186500
 40
0.000000
 41
0.000000
 42
0.000000
  0
VERTEX
  8
ET_TOP
 10
0.947200
 20
12.215500
 40
0.000000
 41
0.000000
 42
0.000000
  0
VERTEX
  8
ET_TOP
 10
0.947200
 20
12.282400
 40
0.000000
 41
0.000000
 42
0.000000
  0
VERTEX
  8
ET_TOP
 10
3.807300
 20
17.236200
 40
0.000000
 41
0.000000
 42
-0.267901
  0
VERTEX
  8
ET_TOP
 10
3.915500
 20
17.298700
 40
0.000000
 41
0.000000
 42
0.000000
  0
VERTEX
  8
ET_TOP
 10
3.949000
 20
17.298700
 40
0.000000
 41
0.000000
 42
0.000000
  0
VERTEX
  8
ET_TOP
 10
4.006900
 20
17.265300
 40
0.000000
 41
0.000000
 42
0.000000
  0
VERTEX
  8
ET_TOP
 10
4.044000
 20
17.201100
 40
0.000000
 41
0.000000
 42
1.000000
  0
VERTEX
  8
ET_TOP
 10
7.681500
 20
19.301100
 40
0.000000
 41
0.000000
 42
0.000000
  0
VERTEX
  8
ET_TOP
 10
7.661100
 20
19.336400
 40
0.000000
 41
0.000000
 42
-0.267953
  0
VERTEX
  8
ET_TOP
 10
7.661200
 20
19.461400
 40
0.000000
 41
0.000000
 42
0.000000
  0
VERTEX
  8
ET_TOP
 10
7.677900
 20
19.490400
 40
0.000000
 41
0.000000
 42
0.000000
  0
VERTEX
  8
ET_TOP
 10
7.735800
 20
19.523800
 40
0.000000
 41
0.000000
 42
0.000000
  0
VERTEX
  8
ET_TOP
 10
13.456100
 20
19.523800
 40
0.000000
 41
0.000000
 42
-0.268046
  0
VERTEX
  8
ET_TOP
 10
13.564400
 20
19.461300
 40
0.000000
 41
0.000000
 42
0.000000
  0
VERTEX
  8
ET_TOP
 10
13.581100
 20
19.432300
 40
0.000000
 41
0.000000
 42
0.000000
  0
VERTEX
  8
ET_TOP
 10
13.581100
 20
19.365500
 40
0.000000
 41
0.000000
 42
0.000000
  0
VERTEX
  8
ET_TOP
 10
13.544000
 20
19.301100
 40
0.000000
 41
0.000000
 42
1.000000
  0
VERTEX
  8
ET_TOP
 10
17.181500
 20
17.201100
 40
0.000000
 41
0.000000
 42
0.000000
  0
VERTEX
  8
ET_TOP
 10
17.201800
 20
17.236200
 40
0.000000
 41
0.000000
 42
-0.267885
  0
VERTEX
  8
ET_TOP
 10
17.310000
 20
17.298700
 40
0.000000
 41
0.000000
 42
0.000000
  0
VERTEX
  8
ET_TOP
 10
17.343500
 20
17.298700
 40
0.000000
 41
0.000000
 42
0.000000
  0
VERTEX
  8
ET_TOP
 10
17.401400
 20
17.265300
 40
0.000000
 41
0.000000
 42
0.000000
  0
VERTEX
  8
ET_TOP
 10
19.315500
 20
13.950000
 40
0.000000
 41
0.000000
 42
0.000000
  0
VERTEX
  8
ET_TOP
 10
19.334000
 20
13.950000
 40
0.000000
 41
0.000000
 42
0.000000
  0
VERTEX
  8
ET_TOP
 10
20.280000
 20
12.311500
 40
0.000000
 41
0.000000
 42
-0.267904
  0
VERTEX
  8
ET_TOP
 10
20.280000
 20
12.186500
 40
0.000000
 41
0.000000
 42
0.000000
  0
VERTEX
  8
ET_TOP
 10
20.263200
 20
12.157400
 40
0.000000
 41
0.000000
 42
0.000000
  0
VERTEX
  8
ET_TOP
 10
20.205300
 20
12.124000
 40
0.000000
 41
0.000000
 42
0.000000
  0
VERTEX
  8
ET_TOP
 10
20.112700
 20
12.124000
 40
0.000000
 41
0.000000
 42
0.064733
  0
VERTEX
  8
ET_TOP
 10
19.575700
 20
12.054200
 40
0.000000
 41
0.000000
 42
0.000000
  0
VERTEX
  8
ET_TOP
 10
19.560000
 20
12.050000
 40
0.000000
 41
0.000000
 42
0.000000
  0
VERTEX
  8
ET_TOP
 10
19.450000
 20
12.050000
 40
0.000000
 41
0.000000
 42
0.000000
  0
VERTEX
  8
ET_TOP
 10
19.450000
 20
12.016600
 40
0.000000
 41
0.000000
 42
0.087257
  0
VERTEX
  8
ET_TOP
 10
18.809900
 20
11.671000
 40
0.000000
 41
0.000000
 42
0.069794
  0
VERTEX
  8
ET_TOP
 10
18.407000
 20
11.249000
 40
0.000000
 41
0.000000
 42
0.129867
  0
VERTEX
  8
ET_TOP
 10
18.024400
 20
10.246700
 40
0.000000
 41
0.000000
 42
0.000000
  0
VERTEX
  8
ET_TOP
 10
18.019300
 20
10.199000
 40
0.000000
 41
0.000000
 42
0.000000
  0
VERTEX
  8
ET_TOP
 10
17.948100
 20
10.135000
 40
0.000000
 41
0.000000
 42
0.000000
  0
VERTEX
  8
ET_TOP
 10
17.332000
 20
10.135000
 40
0.000000
 41
0.000000
 42
0.000000
  0
VERTEX
  8
ET_TOP
 10
17.332000
 20
10.134000
 40
0.000000
 41
0.000000
 42
0.000000
  0
VERTEX
  8
ET_TOP
 10
3.277300
 20
10.134000
 40
0.000000
 41
0.000000
 42
0.000000
  0
VERTEX
  8
ET_TOP
 10
3.206100
 20
10.198000
 40
0.000000
 41
0.000000
 42
0.000000
  0
VERTEX
  8
ET_TOP
 10
3.201000
 20
10.245800
 40
0.000000
 41
0.000000
 42
0.238362
  0
VERTEX
  8
ET_TOP
 10
2.172500
 20
11.837000
 40
0.000000
 41
0.000000
 42
0.133006
  0
SEQEND
  0
POLYLINE
  8
ET_TOP
 66
1
 70
1
 40
0.000000
 41
0.000000
 39
0.000000
  0
VERTEX
  8
ET_TOP
 10
8.200200
 20
15.600000
 40
0.000000
 41
0.000000
 42
1.000000
  0
VERTEX
  8
ET_TOP
 10
6.799800
 20
15.600000
 40
0.000000
 41
0.000000
 42
1.000000
  0
SEQEND
  0
CIRCLE
  8
PIN_TOP
 10
7.500000
 20
15.600000
 40
0.400000
  0
CIRCLE
  8
PIN_SOLDERMASK_TOP
 10
7.500000
 20
15.600000
 40
0.600000
  0
CIRCLE
  8
PIN_TOP
 10
13.650000
 20
4.500000
 40
0.400000
  0
CIRCLE
  8
PIN_SOLDERMASK_TOP
 10
13.650000
 20
4.500000
 40
0.600000
  0
CIRCLE
  8
PIN_TOP
 10
7.500000
 20
-27.500000
 40
0.400000
  0
CIRCLE
  8
PIN_SOLDERMASK_TOP
 10
7.500000
 20
-27.500000
 40
0.600000
  0
CIRCLE
  8
PIN_TOP
 10
112.500000
 20
-27.500000
 40
0.400000
  0
CIRCLE
  8
PIN_SOLDERMASK_TOP
 10
112.500000
 20
-27.500000
 40
0.600000
  0
CIRCLE
  8
PIN_TOP
 10
113.112800
 20
22.523900
 40
0.400000
  0
CIRCLE
  8
PIN_SOLDERMASK_TOP
 10
113.112800
 20
22.523900
 40
0.600000
  0
CIRCLE
  8
PIN_TOP
 10
8.112800
 20
22.523900
 40
0.400000
  0
CIRCLE
  8
PIN_SOLDERMASK_TOP
 10
8.112800
 20
22.523900
 40
0.600000
  0
POLYLINE
  8
PIN_TOP
 66
1
 70
1
 40
0.000000
 41
0.000000
 39
0.000000
  0
VERTEX
  8
PIN_TOP
 10
11.125900
 20
9.490900
 40
0.000000
 41
0.000000
 42
0.000000
  0
VERTEX
  8
PIN_TOP
 10
10.147900
 20
9.490900
 40
0.000000
 41
0.000000
 42
0.000000
  0
VERTEX
  8
PIN_TOP
 10
10.147900
 20
9.913900
 40
0.000000
 41
0.000000
 42
0.000000
  0
VERTEX
  8
PIN_TOP
 10
11.125900
 20
9.913900
 40
0.000000
 41
0.000000
 42
0.000000
  0
SEQEND
  0
POLYLINE
  8
PIN_SOLDERMASK_TOP
 66
1
 70
1
 40
0.000000
 41
0.000000
 39
0.000000
  0
VERTEX
  8
PIN_SOLDERMASK_TOP
 10
11.125900
 20
9.490900
 40
0.000000
 41
0.000000
 42
0.000000
  0
VERTEX
  8
PIN_SOLDERMASK_TOP
 10
10.147900
 20
9.490900
 40
0.000000
 41
0.000000
 42
0.000000
  0
VERTEX
  8
PIN_SOLDERMASK_TOP
 10
10.147900
 20
9.913900
 40
0.000000
 41
0.000000
 42
0.000000
  0
VERTEX
  8
PIN_SOLDERMASK_TOP
 10
11.125900
 20
9.913900
 40
0.000000
 41
0.000000
 42
0.000000
  0
SEQEND
  0
POLYLINE
  8
PIN_TOP
 66
1
 70
1
 40
0.000000
 41
0.000000
 39
0.000000
  0
VERTEX
  8
PIN_TOP
 10
11.125900
 20
10.133900
 40
0.000000
 41
0.000000
 42
0.000000
  0
VERTEX
  8
PIN_TOP
 10
10.147900
 20
10.133900
 40
0.000000
 41
0.000000
 42
0.000000
  0
VERTEX
  8
PIN_TOP
 10
10.147900
 20
10.556900
 40
0.000000
 41
0.000000
 42
0.000000
  0
VERTEX
  8
PIN_TOP
 10
11.125900
 20
10.556900
 40
0.000000
 41
0.000000
 42
0.000000
  0
SEQEND
  0
POLYLINE
  8
PIN_SOLDERMASK_TOP
 66
1
 70
1
 40
0.000000
 41
0.000000
 39
0.000000
  0
VERTEX
  8
PIN_SOLDERMASK_TOP
 10
11.125900
 20
10.133900
 40
0.000000
 41
0.000000
 42
0.000000
  0
VERTEX
  8
PIN_SOLDERMASK_TOP
 10
10.147900
 20
10.133900
 40
0.000000
 41
0.000000
 42
0.000000
  0
VERTEX
  8
PIN_SOLDERMASK_TOP
 10
10.147900
 20
10.556900
 40
0.000000
 41
0.000000
 42
0.000000
  0
VERTEX
  8
PIN_SOLDERMASK_TOP
 10
11.125900
 20
10.556900
 40
0.000000
 41
0.000000
 42
0.000000
  0
SEQEND
  0
POLYLINE
  8
PG_SOLDERMASK_TOP
 66
1
 70
1
 40
0.000000
 41
0.000000
 39
0.000000
  0
VERTEX
  8
PG_SOLDERMASK_TOP
 10
11.586900
 20
10.973900
 40
0.000000
 41
0.000000
 42
0.000000
  0
VERTEX
  8
PG_SOLDERMASK_TOP
 10
9.686900
 20
10.973900
 40
0.000000
 41
0.000000
 42
0.000000
  0
VERTEX
  8
PG_SOLDERMASK_TOP
 10
9.686900
 20
9.073900
 40
0.000000
 41
0.000000
 42
0.000000
  0
VERTEX
  8
PG_SOLDERMASK_TOP
 10
11.586900
 20
9.073900
 40
0.000000
 41
0.000000
 42
0.000000
  0
SEQEND
  0
POLYLINE
  8
PG_SOLDERMASK_TOP
 66
1
 70
1
 40
0.000000
 41
0.000000
 39
0.000000
  0
VERTEX
  8
PG_SOLDERMASK_TOP
 10
9.786900
 20
9.173900
 40
0.000000
 41
0.000000
 42
0.000000
  0
VERTEX
  8
PG_SOLDERMASK_TOP
 10
9.786900
 20
10.873900
 40
0.000000
 41
0.000000
 42
0.000000
  0
VERTEX
  8
PG_SOLDERMASK_TOP
 10
11.486900
 20
10.873900
 40
0.000000
 41
0.000000
 42
0.000000
  0
VERTEX
  8
PG_SOLDERMASK_TOP
 10
11.486900
 20
9.173900
 40
0.000000
 41
0.000000
 42
0.000000
  0
SEQEND
  0
TEXT
  8
RD_SILKSCREEN_TOP
 10
9.735000
 20
7.685000
 11
0.000000
 21
0.000000
 40
0.500000
 41
1.200000
 50
0.000000
  7
STANDARD
 71
0
 72
0
  1
LED1
 73
0
  0
CIRCLE
  8
PIN_SOLDERMASK_TOP
 10
13.512700
 20
11.073900
 40
0.500000
  0
POLYLINE
  8
PIN_TOP
 66
1
 70
1
 40
0.000000
 41
0.000000
 39
0.000000
  0
VERTEX
  8
PIN_TOP
 10
15.018472
 20
5.575058
 40
0.000000
 41
0.000000
 42
0.000000
  0
VERTEX
  8
PIN_TOP
 10
16.668472
 20
8.432942
 40
0.000000
 41
0.000000
 42
0.000000
  0
VERTEX
  8
PIN_TOP
 10
18.573728
 20
7.332942
 40
0.000000
 41
0.000000
 42
0.000000
  0
VERTEX
  8
PIN_TOP
 10
16.923728
 20
4.475058
 40
0.000000
 41
0.000000
 42
0.000000
  0
SEQEND
  0
POLYLINE
  8
PIN_SOLDERMASK_TOP
 66
1
 70
1
 40
0.000000
 41
0.000000
 39
0.000000
  0
VERTEX
  8
PIN_SOLDERMASK_TOP
 10
15.018472
 20
5.575058
 40
0.000000
 41
0.000000
 42
0.000000
  0
VERTEX
  8
PIN_SOLDERMASK_TOP
 10
16.668472
 20
8.432942
 40
0.000000
 41
0.000000
 42
0.000000
  0
VERTEX
  8
PIN_SOLDERMASK_TOP
 10
18.573728
 20
7.332942
 40
0.000000
 41
0.000000
 42
0.000000
  0
VERTEX
  8
PIN_SOLDERMASK_TOP
 10
16.923728
 20
4.475058
 40
0.000000
 41
0.000000
 42
0.000000
  0
SEQEND
  0
POLYLINE
  8
PIN_TOP
 66
1
 70
1
 40
0.000000
 41
0.000000
 39
0.000000
  0
VERTEX
  8
PIN_TOP
 10
4.276872
 20
4.460658
 40
0.000000
 41
0.000000
 42
0.000000
  0
VERTEX
  8
PIN_TOP
 10
2.626872
 20
7.318542
 40
0.000000
 41
0.000000
 42
0.000000
  0
VERTEX
  8
PIN_TOP
 10
4.532128
 20
8.418542
 40
0.000000
 41
0.000000
 42
0.000000
  0
VERTEX
  8
PIN_TOP
 10
6.182128
 20
5.560658
 40
0.000000
 41
0.000000
 42
0.000000
  0
SEQEND
  0
POLYLINE
  8
PIN_SOLDERMASK_TOP
 66
1
 70
1
 40
0.000000
 41
0.000000
 39
0.000000
  0
VERTEX
  8
PIN_SOLDERMASK_TOP
 10
4.276872
 20
4.460658
 40
0.000000
 41
0.000000
 42
0.000000
  0
VERTEX
  8
PIN_SOLDERMASK_TOP
 10
2.626872
 20
7.318542
 40
0.000000
 41
0.000000
 42
0.000000
  0
VERTEX
  8
PIN_SOLDERMASK_TOP
 10
4.532128
 20
8.418542
 40
0.000000
 41
0.000000
 42
0.000000
  0
VERTEX
  8
PIN_SOLDERMASK_TOP
 10
6.182128
 20
5.560658
 40
0.000000
 41
0.000000
 42
0.000000
  0
SEQEND
  0
POLYLINE
  8
PIN_TOP
 66
1
 70
1
 40
0.000000
 41
0.000000
 39
0.000000
  0
VERTEX
  8
PIN_TOP
 10
6.187628
 20
14.483942
 40
0.000000
 41
0.000000
 42
0.000000
  0
VERTEX
  8
PIN_TOP
 10
4.537628
 20
11.626058
 40
0.000000
 41
0.000000
 42
0.000000
  0
VERTEX
  8
PIN_TOP
 10
2.632372
 20
12.726058
 40
0.000000
 41
0.000000
 42
0.000000
  0
VERTEX
  8
PIN_TOP
 10
4.282372
 20
15.583942
 40
0.000000
 41
0.000000
 42
0.000000
  0
SEQEND
  0
POLYLINE
  8
PIN_SOLDERMASK_TOP
 66
1
 70
1
 40
0.000000
 41
0.000000
 39
0.000000
  0
VERTEX
  8
PIN_SOLDERMASK_TOP
 10
6.187628
 20
14.483942
 40
0.000000
 41
0.000000
 42
0.000000
  0
VERTEX
  8
PIN_SOLDERMASK_TOP
 10
4.537628
 20
11.626058
 40
0.000000
 41
0.000000
 42
0.000000
  0
VERTEX
  8
PIN_SOLDERMASK_TOP
 10
2.632372
 20
12.726058
 40
0.000000
 41
0.000000
 42
0.000000
  0
VERTEX
  8
PIN_SOLDERMASK_TOP
 10
4.282372
 20
15.583942
 40
0.000000
 41
0.000000
 42
0.000000
  0
SEQEND
  0
POLYLINE
  8
PIN_TOP
 66
1
 70
1
 40
0.000000
 41
0.000000
 39
0.000000
  0
VERTEX
  8
PIN_TOP
 10
16.662972
 20
11.611658
 40
0.000000
 41
0.000000
 42
0.000000
  0
VERTEX
  8
PIN_TOP
 10
15.012972
 20
14.469542
 40
0.000000
 41
0.000000
 42
0.000000
  0
VERTEX
  8
PIN_TOP
 10
16.918228
 20
15.569542
 40
0.000000
 41
0.000000
 42
0.000000
  0
VERTEX
  8
PIN_TOP
 10
18.568228
 20
12.711658
 40
0.000000
 41
0.000000
 42
0.000000
  0
SEQEND
  0
POLYLINE
  8
PIN_SOLDERMASK_TOP
 66
1
 70
1
 40
0.000000
 41
0.000000
 39
0.000000
  0
VERTEX
  8
PIN_SOLDERMASK_TOP
 10
16.662972
 20
11.611658
 40
0.000000
 41
0.000000
 42
0.000000
  0
VERTEX
  8
PIN_SOLDERMASK_TOP
 10
15.012972
 20
14.469542
 40
0.000000
 41
0.000000
 42
0.000000
  0
VERTEX
  8
PIN_SOLDERMASK_TOP
 10
16.918228
 20
15.569542
 40
0.000000
 41
0.000000
 42
0.000000
  0
VERTEX
  8
PIN_SOLDERMASK_TOP
 10
18.568228
 20
12.711658
 40
0.000000
 41
0.000000
 42
0.000000
  0
SEQEND
  0
POLYLINE
  8
PIN_TOP
 66
1
 70
1
 40
0.000000
 41
0.000000
 39
0.000000
  0
VERTEX
  8
PIN_TOP
 10
9.500000
 20
2.523900
 40
0.000000
 41
0.000000
 42
0.000000
  0
VERTEX
  8
PIN_TOP
 10
9.500000
 20
5.823900
 40
0.000000
 41
0.000000
 42
0.000000
  0
VERTEX
  8
PIN_TOP
 10
11.700000
 20
5.823900
 40
0.000000
 41
0.000000
 42
0.000000
  0
VERTEX
  8
PIN_TOP
 10
11.700000
 20
2.523900
 40
0.000000
 41
0.000000
 42
0.000000
  0
SEQEND
  0
POLYLINE
  8
PIN_SOLDERMASK_TOP
 66
1
 70
1
 40
0.000000
 41
0.000000
 39
0.000000
  0
VERTEX
  8
PIN_SOLDERMASK_TOP
 10
9.500000
 20
2.523900
 40
0.000000
 41
0.000000
 42
0.000000
  0
VERTEX
  8
PIN_SOLDERMASK_TOP
 10
9.500000
 20
5.823900
 40
0.000000
 41
0.000000
 42
0.000000
  0
VERTEX
  8
PIN_SOLDERMASK_TOP
 10
11.700000
 20
5.823900
 40
0.000000
 41
0.000000
 42
0.000000
  0
VERTEX
  8
PIN_SOLDERMASK_TOP
 10
11.700000
 20
2.523900
 40
0.000000
 41
0.000000
 42
0.000000
  0
SEQEND
  0
POLYLINE
  8
PIN_TOP
 66
1
 70
1
 40
0.000000
 41
0.000000
 39
0.000000
  0
VERTEX
  8
PIN_TOP
 10
9.500000
 20
14.223900
 40
0.000000
 41
0.000000
 42
0.000000
  0
VERTEX
  8
PIN_TOP
 10
9.500000
 20
17.523900
 40
0.000000
 41
0.000000
 42
0.000000
  0
VERTEX
  8
PIN_TOP
 10
11.700000
 20
17.523900
 40
0.000000
 41
0.000000
 42
0.000000
  0
VERTEX
  8
PIN_TOP
 10
11.700000
 20
14.223900
 40
0.000000
 41
0.000000
 42
0.000000
  0
SEQEND
  0
POLYLINE
  8
PIN_SOLDERMASK_TOP
 66
1
 70
1
 40
0.000000
 41
0.000000
 39
0.000000
  0
VERTEX
  8
PIN_SOLDERMASK_TOP
 10
9.500000
 20
14.223900
 40
0.000000
 41
0.000000
 42
0.000000
  0
VERTEX
  8
PIN_SOLDERMASK_TOP
 10
9.500000
 20
17.523900
 40
0.000000
 41
0.000000
 42
0.000000
  0
VERTEX
  8
PIN_SOLDERMASK_TOP
 10
11.700000
 20
17.523900
 40
0.000000
 41
0.000000
 42
0.000000
  0
VERTEX
  8
PIN_SOLDERMASK_TOP
 10
11.700000
 20
14.223900
 40
0.000000
 41
0.000000
 42
0.000000
  0
SEQEND
  0
CIRCLE
  8
PIN_TOP
 10
118.112800
 20
22.523900
 40
1.500000
  0
CIRCLE
  8
PIN_SOLDERMASK_TOP
 10
118.112800
 20
22.523900
 40
2.000000
  0
INSERT
  8
MA_NCLEGEND-1-2
  2
FIGURE_CIRCLE
 10
118.112800
 20
22.523900
 41
3.000000
 42
3.000000
 50
0.000000
  0
TEXT
  8
MA_NCLEGEND-1-2
 10
117.112800
 20
21.773900
 11
118.112800
 21
22.523900
 40
1.500000
 41
1.000000
 50
0.000000
  7
STANDARD
 71
0
 72
1
  1
A
 73
2
  0
CIRCLE
  8
PIN_TOP
 10
3.112800
 20
22.523900
 40
1.500000
  0
CIRCLE
  8
PIN_SOLDERMASK_TOP
 10
3.112800
 20
22.523900
 40
2.000000
  0
INSERT
  8
MA_NCLEGEND-1-2
  2
FIGURE_CIRCLE
 10
3.112800
 20
22.523900
 41
3.000000
 42
3.000000
 50
0.000000
  0
TEXT
  8
MA_NCLEGEND-1-2
 10
2.112800
 20
21.773900
 11
3.112800
 21
22.523900
 40
1.500000
 41
1.000000
 50
0.000000
  7
STANDARD
 71
0
 72
1
  1
A
 73
2
  0
CIRCLE
  8
PIN_TOP
 10
2.500000
 20
-27.500000
 40
1.500000
  0
CIRCLE
  8
PIN_SOLDERMASK_TOP
 10
2.500000
 20
-27.500000
 40
2.000000
  0
INSERT
  8
MA_NCLEGEND-1-2
  2
FIGURE_CIRCLE
 10
2.500000
 20
-27.500000
 41
3.000000
 42
3.000000
 50
0.000000
  0
TEXT
  8
MA_NCLEGEND-1-2
 10
1.500000
 20
-28.250000
 11
2.500000
 21
-27.500000
 40
1.500000
 41
1.000000
 50
0.000000
  7
STANDARD
 71
0
 72
1
  1
A
 73
2
  0
CIRCLE
  8
PIN_TOP
 10
117.500000
 20
-27.500000
 40
1.500000
  0
CIRCLE
  8
PIN_SOLDERMASK_TOP
 10
117.500000
 20
-27.500000
 40
2.000000
  0
INSERT
  8
MA_NCLEGEND-1-2
  2
FIGURE_CIRCLE
 10
117.500000
 20
-27.500000
 41
3.000000
 42
3.000000
 50
0.000000
  0
TEXT
  8
MA_NCLEGEND-1-2
 10
116.500000
 20
-28.250000
 11
117.500000
 21
-27.500000
 40
1.500000
 41
1.000000
 50
0.000000
  7
STANDARD
 71
0
 72
1
  1
A
 73
2
  0
POLYLINE
  8
MA_NCLEGEND-1-2
 66
1
 70
0
 40
0.000000
 41
0.000000
 39
0.000000
  0
VERTEX
  8
MA_NCLEGEND-1-2
 10
0.000000
 20
-48.700000
 40
0.000000
 41
0.000000
 42
0.000000
  0
VERTEX
  8
MA_NCLEGEND-1-2
 10
42.200000
 20
-48.700000
 40
0.000000
 41
0.000000
 42
0.000000
  0
SEQEND
  0
POLYLINE
  8
MA_NCLEGEND-1-2
 66
1
 70
0
 40
0.000000
 41
0.000000
 39
0.000000
  0
VERTEX
  8
MA_NCLEGEND-1-2
 10
35.500000
 20
-45.700000
 40
0.000000
 41
0.000000
 42
0.000000
  0
VERTEX
  8
MA_NCLEGEND-1-2
 10
35.500000
 20
-53.200000
 40
0.000000
 41
0.000000
 42
0.000000
  0
SEQEND
  0
POLYLINE
  8
MA_NCLEGEND-1-2
 66
1
 70
0
 40
0.000000
 41
0.000000
 39
0.000000
  0
VERTEX
  8
MA_NCLEGEND-1-2
 10
24.400000
 20
-45.700000
 40
0.000000
 41
0.000000
 42
0.000000
  0
VERTEX
  8
MA_NCLEGEND-1-2
 10
24.400000
 20
-53.200000
 40
0.000000
 41
0.000000
 42
0.000000
  0
SEQEND
  0
POLYLINE
  8
MA_NCLEGEND-1-2
 66
1
 70
0
 40
0.000000
 41
0.000000
 39
0.000000
  0
VERTEX
  8
MA_NCLEGEND-1-2
 10
7.800000
 20
-45.700000
 40
0.000000
 41
0.000000
 42
0.000000
  0
VERTEX
  8
MA_NCLEGEND-1-2
 10
7.800000
 20
-53.200000
 40
0.000000
 41
0.000000
 42
0.000000
  0
SEQEND
  0
POLYLINE
  8
MA_NCLEGEND-1-2
 66
1
 70
0
 40
0.000000
 41
0.000000
 39
0.000000
  0
VERTEX
  8
MA_NCLEGEND-1-2
 10
0.000000
 20
-45.700000
 40
0.000000
 41
0.000000
 42
0.000000
  0
VERTEX
  8
MA_NCLEGEND-1-2
 10
42.200000
 20
-45.700000
 40
0.000000
 41
0.000000
 42
0.000000
  0
SEQEND
  0
POLYLINE
  8
MA_NCLEGEND-1-2
 66
1
 70
0
 40
0.000000
 41
0.000000
 39
0.000000
  0
VERTEX
  8
MA_NCLEGEND-1-2
 10
0.000000
 20
-42.700000
 40
0.000000
 41
0.000000
 42
0.000000
  0
VERTEX
  8
MA_NCLEGEND-1-2
 10
42.200000
 20
-42.700000
 40
0.000000
 41
0.000000
 42
0.000000
  0
SEQEND
  0
POLYLINE
  8
BG_OUTLINE
 66
1
 70
0
 40
0.000000
 41
0.000000
 39
0.000000
  0
VERTEX
  8
BG_OUTLINE
 10
-3.712800
 20
-25.023900
 40
0.100000
 41
0.100000
 42
0.000000
  0
VERTEX
  8
BG_OUTLINE
 10
-2.812800
 20
-25.023900
 40
0.100000
 41
0.100000
 42
0.000000
  0
VERTEX
  8
BG_OUTLINE
 10
-3.012800
 20
-24.823900
 40
0.100000
 41
0.100000
 42
0.000000
  0
SEQEND
  0
POLYLINE
  8
BG_OUTLINE
 66
1
 70
0
 40
0.000000
 41
0.000000
 39
0.000000
  0
VERTEX
  8
BG_OUTLINE
 10
-2.812800
 20
-25.023900
 40
0.100000
 41
0.100000
 42
0.000000
  0
VERTEX
  8
BG_OUTLINE
 10
-3.012800
 20
-25.223900
 40
0.100000
 41
0.100000
 42
0.000000
  0
SEQEND
  0
POLYLINE
  8
BG_OUTLINE
 66
1
 70
0
 40
0.000000
 41
0.000000
 39
0.000000
  0
VERTEX
  8
BG_OUTLINE
 10
-3.100000
 20
-5.000000
 40
0.100000
 41
0.100000
 42
0.000000
  0
VERTEX
  8
BG_OUTLINE
 10
-2.200000
 20
-5.000000
 40
0.100000
 41
0.100000
 42
0.000000
  0
VERTEX
  8
BG_OUTLINE
 10
-2.400000
 20
-4.800000
 40
0.100000
 41
0.100000
 42
0.000000
  0
SEQEND
  0
POLYLINE
  8
BG_OUTLINE
 66
1
 70
0
 40
0.000000
 41
0.000000
 39
0.000000
  0
VERTEX
  8
BG_OUTLINE
 10
-2.200000
 20
-5.000000
 40
0.100000
 41
0.100000
 42
0.000000
  0
VERTEX
  8
BG_OUTLINE
 10
-2.400000
 20
-5.200000
 40
0.100000
 41
0.100000
 42
0.000000
  0
SEQEND
  0
POLYLINE
  8
BG_OUTLINE
 66
1
 70
0
 40
0.000000
 41
0.000000
 39
0.000000
  0
VERTEX
  8
BG_OUTLINE
 10
-3.100000
 20
20.000000
 40
0.100000
 41
0.100000
 42
0.000000
  0
VERTEX
  8
BG_OUTLINE
 10
-2.200000
 20
20.000000
 40
0.100000
 41
0.100000
 42
0.000000
  0
VERTEX
  8
BG_OUTLINE
 10
-2.400000
 20
20.200000
 40
0.100000
 41
0.100000
 42
0.000000
  0
SEQEND
  0
POLYLINE
  8
BG_OUTLINE
 66
1
 70
0
 40
0.000000
 41
0.000000
 39
0.000000
  0
VERTEX
  8
BG_OUTLINE
 10
-2.200000
 20
20.000000
 40
0.100000
 41
0.100000
 42
0.000000
  0
VERTEX
  8
BG_OUTLINE
 10
-2.400000
 20
19.800000
 40
0.100000
 41
0.100000
 42
0.000000
  0
SEQEND
  0
POLYLINE
  8
BG_OUTLINE
 66
1
 70
0
 40
0.000000
 41
0.000000
 39
0.000000
  0
VERTEX
  8
BG_OUTLINE
 10
-2.200000
 20
0.000000
 40
0.100000
 41
0.100000
 42
0.000000
  0
VERTEX
  8
BG_OUTLINE
 10
-2.400000
 20
-0.200000
 40
0.100000
 41
0.100000
 42
0.000000
  0
SEQEND
  0
POLYLINE
  8
BG_OUTLINE
 66
1
 70
0
 40
0.000000
 41
0.000000
 39
0.000000
  0
VERTEX
  8
BG_OUTLINE
 10
-3.100000
 20
0.000000
 40
0.100000
 41
0.100000
 42
0.000000
  0
VERTEX
  8
BG_OUTLINE
 10
-2.200000
 20
0.000000
 40
0.100000
 41
0.100000
 42
0.000000
  0
VERTEX
  8
BG_OUTLINE
 10
-2.400000
 20
0.200000
 40
0.100000
 41
0.100000
 42
0.000000
  0
SEQEND
  0
POLYLINE
  8
BG_OUTLINE
 66
1
 70
0
 40
0.000000
 41
0.000000
 39
0.000000
  0
VERTEX
  8
BG_OUTLINE
 10
-2.500000
 20
-25.000000
 40
0.100000
 41
0.100000
 42
0.000000
  0
VERTEX
  8
BG_OUTLINE
 10
-2.500000
 20
-30.000000
 40
0.100000
 41
0.100000
 42
0.000000
  0
VERTEX
  8
BG_OUTLINE
 10
122.500000
 20
-30.000000
 40
0.100000
 41
0.100000
 42
0.000000
  0
VERTEX
  8
BG_OUTLINE
 10
122.500000
 20
-25.000000
 40
0.100000
 41
0.100000
 42
0.000000
  0
VERTEX
  8
BG_OUTLINE
 10
-2.500000
 20
-25.000000
 40
0.100000
 41
0.100000
 42
0.000000
  0
SEQEND
  0
POLYLINE
  8
BG_OUTLINE
 66
1
 70
0
 40
0.000000
 41
0.000000
 39
0.000000
  0
VERTEX
  8
BG_OUTLINE
 10
-1.887200
 20
0.023900
 40
0.100000
 41
0.100000
 42
0.000000
  0
VERTEX
  8
BG_OUTLINE
 10
-1.887200
 20
-4.976100
 40
0.100000
 41
0.100000
 42
0.000000
  0
VERTEX
  8
BG_OUTLINE
 10
123.112800
 20
-4.976100
 40
0.100000
 41
0.100000
 42
0.000000
  0
VERTEX
  8
BG_OUTLINE
 10
123.112800
 20
0.023900
 40
0.100000
 41
0.100000
 42
0.000000
  0
VERTEX
  8
BG_OUTLINE
 10
-1.887200
 20
0.023900
 40
0.100000
 41
0.100000
 42
0.000000
  0
SEQEND
  0
POLYLINE
  8
BG_OUTLINE
 66
1
 70
0
 40
0.000000
 41
0.000000
 39
0.000000
  0
VERTEX
  8
BG_OUTLINE
 10
-1.887200
 20
25.023900
 40
0.100000
 41
0.100000
 42
0.000000
  0
VERTEX
  8
BG_OUTLINE
 10
-1.887200
 20
20.023900
 40
0.100000
 41
0.100000
 42
0.000000
  0
VERTEX
  8
BG_OUTLINE
 10
123.112800
 20
20.023900
 40
0.100000
 41
0.100000
 42
0.000000
  0
VERTEX
  8
BG_OUTLINE
 10
123.112800
 20
25.023900
 40
0.100000
 41
0.100000
 42
0.000000
  0
VERTEX
  8
BG_OUTLINE
 10
-1.887200
 20
25.023900
 40
0.100000
 41
0.100000
 42
0.000000
  0
SEQEND
  0
POLYLINE
  8
BG_OUTLINE
 66
1
 70
0
 40
0.000000
 41
0.000000
 39
0.000000
  0
VERTEX
  8
BG_OUTLINE
 10
120.112700
 20
-13.376100
 40
0.100000
 41
0.100000
 42
0.999983
  0
VERTEX
  8
BG_OUTLINE
 10
120.112700
 20
-16.576100
 40
0.100000
 41
0.100000
 42
0.000000
  0
SEQEND
  0
POLYLINE
  8
BG_OUTLINE
 66
1
 70
0
 40
0.000000
 41
0.000000
 39
0.000000
  0
VERTEX
  8
BG_OUTLINE
 10
121.236000
 20
-16.576100
 40
0.100000
 41
0.100000
 42
0.000000
  0
VERTEX
  8
BG_OUTLINE
 10
120.112700
 20
-16.576100
 40
0.100000
 41
0.100000
 42
0.000000
  0
SEQEND
  0
POLYLINE
  8
BG_OUTLINE
 66
1
 70
0
 40
0.000000
 41
0.000000
 39
0.000000
  0
VERTEX
  8
BG_OUTLINE
 10
121.236000
 20
-13.376100
 40
0.100000
 41
0.100000
 42
0.000000
  0
VERTEX
  8
BG_OUTLINE
 10
120.112700
 20
-13.376100
 40
0.100000
 41
0.100000
 42
0.000000
  0
SEQEND
  0
POLYLINE
  8
BG_OUTLINE
 66
1
 70
0
 40
0.000000
 41
0.000000
 39
0.000000
  0
VERTEX
  8
BG_OUTLINE
 10
117.310000
 20
-6.576100
 40
0.100000
 41
0.100000
 42
0.000000
  0
VERTEX
  8
BG_OUTLINE
 10
116.748400
 20
-7.548900
 40
0.100000
 41
0.100000
 42
0.000000
  0
SEQEND
  0
POLYLINE
  8
BG_OUTLINE
 66
1
 70
0
 40
0.000000
 41
0.000000
 39
0.000000
  0
VERTEX
  8
BG_OUTLINE
 10
114.538700
 20
-4.976100
 40
0.100000
 41
0.100000
 42
0.000000
  0
VERTEX
  8
BG_OUTLINE
 10
113.977100
 20
-5.948900
 40
0.100000
 41
0.100000
 42
0.000000
  0
SEQEND
  0
POLYLINE
  8
BG_OUTLINE
 66
1
 70
0
 40
0.000000
 41
0.000000
 39
0.000000
  0
VERTEX
  8
BG_OUTLINE
 10
113.977100
 20
-5.948900
 40
0.100000
 41
0.100000
 42
1.000000
  0
VERTEX
  8
BG_OUTLINE
 10
116.748400
 20
-7.548900
 40
0.100000
 41
0.100000
 42
0.000000
  0
SEQEND
  0
POLYLINE
  8
BG_OUTLINE
 66
1
 70
0
 40
0.000000
 41
0.000000
 39
0.000000
  0
VERTEX
  8
BG_OUTLINE
 10
121.236000
 20
-13.376100
 40
0.100000
 41
0.100000
 42
0.000000
  0
VERTEX
  8
BG_OUTLINE
 10
117.310000
 20
-6.576100
 40
0.100000
 41
0.100000
 42
0.000000
  0
SEQEND
  0
POLYLINE
  8
BG_OUTLINE
 66
1
 70
0
 40
0.000000
 41
0.000000
 39
0.000000
  0
VERTEX
  8
BG_OUTLINE
 10
117.310000
 20
-23.376100
 40
0.100000
 41
0.100000
 42
0.000000
  0
VERTEX
  8
BG_OUTLINE
 10
116.748400
 20
-22.403300
 40
0.100000
 41
0.100000
 42
0.000000
  0
SEQEND
  0
POLYLINE
  8
BG_OUTLINE
 66
1
 70
0
 40
0.000000
 41
0.000000
 39
0.000000
  0
VERTEX
  8
BG_OUTLINE
 10
116.748400
 20
-22.403300
 40
0.100000
 41
0.100000
 42
1.000000
  0
VERTEX
  8
BG_OUTLINE
 10
113.977100
 20
-24.003300
 40
0.100000
 41
0.100000
 42
0.000000
  0
SEQEND
  0
POLYLINE
  8
BG_OUTLINE
 66
1
 70
0
 40
0.000000
 41
0.000000
 39
0.000000
  0
VERTEX
  8
BG_OUTLINE
 10
114.538700
 20
-24.976100
 40
0.100000
 41
0.100000
 42
0.000000
  0
VERTEX
  8
BG_OUTLINE
 10
113.977100
 20
-24.003300
 40
0.100000
 41
0.100000
 42
0.000000
  0
SEQEND
  0
POLYLINE
  8
BG_OUTLINE
 66
1
 70
0
 40
0.000000
 41
0.000000
 39
0.000000
  0
VERTEX
  8
BG_OUTLINE
 10
117.310000
 20
-23.376100
 40
0.100000
 41
0.100000
 42
0.000000
  0
VERTEX
  8
BG_OUTLINE
 10
121.236000
 20
-16.576100
 40
0.100000
 41
0.100000
 42
0.000000
  0
SEQEND
  0
POLYLINE
  8
BG_OUTLINE
 66
1
 70
0
 40
0.000000
 41
0.000000
 39
0.000000
  0
VERTEX
  8
BG_OUTLINE
 10
106.686800
 20
-4.976100
 40
0.100000
 41
0.100000
 42
0.000000
  0
VERTEX
  8
BG_OUTLINE
 10
107.248400
 20
-5.948900
 40
0.100000
 41
0.100000
 42
0.000000
  0
SEQEND
  0
POLYLINE
  8
BG_OUTLINE
 66
1
 70
0
 40
0.000000
 41
0.000000
 39
0.000000
  0
VERTEX
  8
BG_OUTLINE
 10
103.915500
 20
-6.576100
 40
0.100000
 41
0.100000
 42
0.000000
  0
VERTEX
  8
BG_OUTLINE
 10
104.477100
 20
-7.548900
 40
0.100000
 41
0.100000
 42
0.000000
  0
SEQEND
  0
POLYLINE
  8
BG_OUTLINE
 66
1
 70
0
 40
0.000000
 41
0.000000
 39
0.000000
  0
VERTEX
  8
BG_OUTLINE
 10
104.477100
 20
-7.548900
 40
0.100000
 41
0.100000
 42
1.000000
  0
VERTEX
  8
BG_OUTLINE
 10
107.248400
 20
-5.948900
 40
0.100000
 41
0.100000
 42
0.000000
  0
SEQEND
  0
POLYLINE
  8
BG_OUTLINE
 66
1
 70
0
 40
0.000000
 41
0.000000
 39
0.000000
  0
VERTEX
  8
BG_OUTLINE
 10
103.915500
 20
-23.376100
 40
0.100000
 41
0.100000
 42
0.000000
  0
VERTEX
  8
BG_OUTLINE
 10
104.477100
 20
-22.403300
 40
0.100000
 41
0.100000
 42
0.000000
  0
SEQEND
  0
POLYLINE
  8
BG_OUTLINE
 66
1
 70
0
 40
0.000000
 41
0.000000
 39
0.000000
  0
VERTEX
  8
BG_OUTLINE
 10
107.248400
 20
-24.003300
 40
0.100000
 41
0.100000
 42
1.000000
  0
VERTEX
  8
BG_OUTLINE
 10
104.477100
 20
-22.403300
 40
0.100000
 41
0.100000
 42
0.000000
  0
SEQEND
  0
POLYLINE
  8
BG_OUTLINE
 66
1
 70
0
 40
0.000000
 41
0.000000
 39
0.000000
  0
VERTEX
  8
BG_OUTLINE
 10
106.686800
 20
-24.976100
 40
0.100000
 41
0.100000
 42
0.000000
  0
VERTEX
  8
BG_OUTLINE
 10
114.538700
 20
-24.976100
 40
0.100000
 41
0.100000
 42
0.000000
  0
SEQEND
  0
POLYLINE
  8
BG_OUTLINE
 66
1
 70
0
 40
0.000000
 41
0.000000
 39
0.000000
  0
VERTEX
  8
BG_OUTLINE
 10
106.686800
 20
-24.976100
 40
0.100000
 41
0.100000
 42
0.000000
  0
VERTEX
  8
BG_OUTLINE
 10
107.248400
 20
-24.003300
 40
0.100000
 41
0.100000
 42
0.000000
  0
SEQEND
  0
POLYLINE
  8
BG_OUTLINE
 66
1
 70
0
 40
0.000000
 41
0.000000
 39
0.000000
  0
VERTEX
  8
BG_OUTLINE
 10
99.989500
 20
-13.376100
 40
0.100000
 41
0.100000
 42
0.000000
  0
VERTEX
  8
BG_OUTLINE
 10
101.112700
 20
-13.376100
 40
0.100000
 41
0.100000
 42
0.000000
  0
SEQEND
  0
POLYLINE
  8
BG_OUTLINE
 66
1
 70
0
 40
0.000000
 41
0.000000
 39
0.000000
  0
VERTEX
  8
BG_OUTLINE
 10
99.989500
 20
-13.376100
 40
0.100000
 41
0.100000
 42
0.000000
  0
VERTEX
  8
BG_OUTLINE
 10
103.915500
 20
-6.576100
 40
0.100000
 41
0.100000
 42
0.000000
  0
SEQEND
  0
POLYLINE
  8
BG_OUTLINE
 66
1
 70
0
 40
0.000000
 41
0.000000
 39
0.000000
  0
VERTEX
  8
BG_OUTLINE
 10
99.989500
 20
-16.576100
 40
0.100000
 41
0.100000
 42
0.000000
  0
VERTEX
  8
BG_OUTLINE
 10
101.112700
 20
-16.576100
 40
0.100000
 41
0.100000
 42
0.000000
  0
SEQEND
  0
POLYLINE
  8
BG_OUTLINE
 66
1
 70
0
 40
0.000000
 41
0.000000
 39
0.000000
  0
VERTEX
  8
BG_OUTLINE
 10
101.112700
 20
-16.576100
 40
0.100000
 41
0.100000
 42
1.000017
  0
VERTEX
  8
BG_OUTLINE
 10
101.112700
 20
-13.376100
 40
0.100000
 41
0.100000
 42
0.000000
  0
SEQEND
  0
POLYLINE
  8
BG_OUTLINE
 66
1
 70
0
 40
0.000000
 41
0.000000
 39
0.000000
  0
VERTEX
  8
BG_OUTLINE
 10
103.915500
 20
-23.376100
 40
0.100000
 41
0.100000
 42
0.000000
  0
VERTEX
  8
BG_OUTLINE
 10
99.989500
 20
-16.576100
 40
0.100000
 41
0.100000
 42
0.000000
  0
SEQEND
  0
POLYLINE
  8
BG_OUTLINE
 66
1
 70
0
 40
0.000000
 41
0.000000
 39
0.000000
  0
VERTEX
  8
BG_OUTLINE
 10
92.310000
 20
-6.576100
 40
0.100000
 41
0.100000
 42
0.000000
  0
VERTEX
  8
BG_OUTLINE
 10
91.748400
 20
-7.548900
 40
0.100000
 41
0.100000
 42
0.000000
  0
SEQEND
  0
POLYLINE
  8
BG_OUTLINE
 66
1
 70
0
 40
0.000000
 41
0.000000
 39
0.000000
  0
VERTEX
  8
BG_OUTLINE
 10
89.538700
 20
-4.976100
 40
0.100000
 41
0.100000
 42
0.000000
  0
VERTEX
  8
BG_OUTLINE
 10
88.977100
 20
-5.948900
 40
0.100000
 41
0.100000
 42
0.000000
  0
SEQEND
  0
POLYLINE
  8
BG_OUTLINE
 66
1
 70
0
 40
0.000000
 41
0.000000
 39
0.000000
  0
VERTEX
  8
BG_OUTLINE
 10
88.977100
 20
-5.948900
 40
0.100000
 41
0.100000
 42
1.000000
  0
VERTEX
  8
BG_OUTLINE
 10
91.748400
 20
-7.548900
 40
0.100000
 41
0.100000
 42
0.000000
  0
SEQEND
  0
POLYLINE
  8
BG_OUTLINE
 66
1
 70
0
 40
0.000000
 41
0.000000
 39
0.000000
  0
VERTEX
  8
BG_OUTLINE
 10
95.112700
 20
-13.376100
 40
0.100000
 41
0.100000
 42
0.999983
  0
VERTEX
  8
BG_OUTLINE
 10
95.112700
 20
-16.576100
 40
0.100000
 41
0.100000
 42
0.000000
  0
SEQEND
  0
POLYLINE
  8
BG_OUTLINE
 66
1
 70
0
 40
0.000000
 41
0.000000
 39
0.000000
  0
VERTEX
  8
BG_OUTLINE
 10
96.236000
 20
-13.376100
 40
0.100000
 41
0.100000
 42
0.000000
  0
VERTEX
  8
BG_OUTLINE
 10
92.310000
 20
-6.576100
 40
0.100000
 41
0.100000
 42
0.000000
  0
SEQEND
  0
POLYLINE
  8
BG_OUTLINE
 66
1
 70
0
 40
0.000000
 41
0.000000
 39
0.000000
  0
VERTEX
  8
BG_OUTLINE
 10
96.236000
 20
-16.576100
 40
0.100000
 41
0.100000
 42
0.000000
  0
VERTEX
  8
BG_OUTLINE
 10
95.112700
 20
-16.576100
 40
0.100000
 41
0.100000
 42
0.000000
  0
SEQEND
  0
POLYLINE
  8
BG_OUTLINE
 66
1
 70
0
 40
0.000000
 41
0.000000
 39
0.000000
  0
VERTEX
  8
BG_OUTLINE
 10
96.236000
 20
-13.376100
 40
0.100000
 41
0.100000
 42
0.000000
  0
VERTEX
  8
BG_OUTLINE
 10
95.112700
 20
-13.376100
 40
0.100000
 41
0.100000
 42
0.000000
  0
SEQEND
  0
POLYLINE
  8
BG_OUTLINE
 66
1
 70
0
 40
0.000000
 41
0.000000
 39
0.000000
  0
VERTEX
  8
BG_OUTLINE
 10
92.310000
 20
-23.376100
 40
0.100000
 41
0.100000
 42
0.000000
  0
VERTEX
  8
BG_OUTLINE
 10
91.748400
 20
-22.403300
 40
0.100000
 41
0.100000
 42
0.000000
  0
SEQEND
  0
POLYLINE
  8
BG_OUTLINE
 66
1
 70
0
 40
0.000000
 41
0.000000
 39
0.000000
  0
VERTEX
  8
BG_OUTLINE
 10
91.748400
 20
-22.403300
 40
0.100000
 41
0.100000
 42
1.000000
  0
VERTEX
  8
BG_OUTLINE
 10
88.977100
 20
-24.003300
 40
0.100000
 41
0.100000
 42
0.000000
  0
SEQEND
  0
POLYLINE
  8
BG_OUTLINE
 66
1
 70
0
 40
0.000000
 41
0.000000
 39
0.000000
  0
VERTEX
  8
BG_OUTLINE
 10
89.538700
 20
-24.976100
 40
0.100000
 41
0.100000
 42
0.000000
  0
VERTEX
  8
BG_OUTLINE
 10
88.977100
 20
-24.003300
 40
0.100000
 41
0.100000
 42
0.000000
  0
SEQEND
  0
POLYLINE
  8
BG_OUTLINE
 66
1
 70
0
 40
0.000000
 41
0.000000
 39
0.000000
  0
VERTEX
  8
BG_OUTLINE
 10
92.310000
 20
-23.376100
 40
0.100000
 41
0.100000
 42
0.000000
  0
VERTEX
  8
BG_OUTLINE
 10
96.236000
 20
-16.576100
 40
0.100000
 41
0.100000
 42
0.000000
  0
SEQEND
  0
POLYLINE
  8
BG_OUTLINE
 66
1
 70
0
 40
0.000000
 41
0.000000
 39
0.000000
  0
VERTEX
  8
BG_OUTLINE
 10
81.686800
 20
-4.976100
 40
0.100000
 41
0.100000
 42
0.000000
  0
VERTEX
  8
BG_OUTLINE
 10
82.248400
 20
-5.948900
 40
0.100000
 41
0.100000
 42
0.000000
  0
SEQEND
  0
POLYLINE
  8
BG_OUTLINE
 66
1
 70
0
 40
0.000000
 41
0.000000
 39
0.000000
  0
VERTEX
  8
BG_OUTLINE
 10
81.686800
 20
-24.976100
 40
0.100000
 41
0.100000
 42
0.000000
  0
VERTEX
  8
BG_OUTLINE
 10
89.538700
 20
-24.976100
 40
0.100000
 41
0.100000
 42
0.000000
  0
SEQEND
  0
POLYLINE
  8
BG_OUTLINE
 66
1
 70
0
 40
0.000000
 41
0.000000
 39
0.000000
  0
VERTEX
  8
BG_OUTLINE
 10
81.686800
 20
-24.976100
 40
0.100000
 41
0.100000
 42
0.000000
  0
VERTEX
  8
BG_OUTLINE
 10
82.248400
 20
-24.003300
 40
0.100000
 41
0.100000
 42
0.000000
  0
SEQEND
  0
POLYLINE
  8
BG_OUTLINE
 66
1
 70
0
 40
0.000000
 41
0.000000
 39
0.000000
  0
VERTEX
  8
BG_OUTLINE
 10
78.915500
 20
-6.576100
 40
0.100000
 41
0.100000
 42
0.000000
  0
VERTEX
  8
BG_OUTLINE
 10
79.477100
 20
-7.548900
 40
0.100000
 41
0.100000
 42
0.000000
  0
SEQEND
  0
POLYLINE
  8
BG_OUTLINE
 66
1
 70
0
 40
0.000000
 41
0.000000
 39
0.000000
  0
VERTEX
  8
BG_OUTLINE
 10
79.477100
 20
-7.548900
 40
0.100000
 41
0.100000
 42
1.000000
  0
VERTEX
  8
BG_OUTLINE
 10
82.248400
 20
-5.948900
 40
0.100000
 41
0.100000
 42
0.000000
  0
SEQEND
  0
POLYLINE
  8
BG_OUTLINE
 66
1
 70
0
 40
0.000000
 41
0.000000
 39
0.000000
  0
VERTEX
  8
BG_OUTLINE
 10
74.989500
 20
-13.376100
 40
0.100000
 41
0.100000
 42
0.000000
  0
VERTEX
  8
BG_OUTLINE
 10
76.112700
 20
-13.376100
 40
0.100000
 41
0.100000
 42
0.000000
  0
SEQEND
  0
POLYLINE
  8
BG_OUTLINE
 66
1
 70
0
 40
0.000000
 41
0.000000
 39
0.000000
  0
VERTEX
  8
BG_OUTLINE
 10
74.989500
 20
-13.376100
 40
0.100000
 41
0.100000
 42
0.000000
  0
VERTEX
  8
BG_OUTLINE
 10
78.915500
 20
-6.576100
 40
0.100000
 41
0.100000
 42
0.000000
  0
SEQEND
  0
POLYLINE
  8
BG_OUTLINE
 66
1
 70
0
 40
0.000000
 41
0.000000
 39
0.000000
  0
VERTEX
  8
BG_OUTLINE
 10
74.989500
 20
-16.576100
 40
0.100000
 41
0.100000
 42
0.000000
  0
VERTEX
  8
BG_OUTLINE
 10
76.112700
 20
-16.576100
 40
0.100000
 41
0.100000
 42
0.000000
  0
SEQEND
  0
POLYLINE
  8
BG_OUTLINE
 66
1
 70
0
 40
0.000000
 41
0.000000
 39
0.000000
  0
VERTEX
  8
BG_OUTLINE
 10
76.112700
 20
-16.576100
 40
0.100000
 41
0.100000
 42
1.000017
  0
VERTEX
  8
BG_OUTLINE
 10
76.112700
 20
-13.376100
 40
0.100000
 41
0.100000
 42
0.000000
  0
SEQEND
  0
POLYLINE
  8
BG_OUTLINE
 66
1
 70
0
 40
0.000000
 41
0.000000
 39
0.000000
  0
VERTEX
  8
BG_OUTLINE
 10
78.915500
 20
-23.376100
 40
0.100000
 41
0.100000
 42
0.000000
  0
VERTEX
  8
BG_OUTLINE
 10
74.989500
 20
-16.576100
 40
0.100000
 41
0.100000
 42
0.000000
  0
SEQEND
  0
POLYLINE
  8
BG_OUTLINE
 66
1
 70
0
 40
0.000000
 41
0.000000
 39
0.000000
  0
VERTEX
  8
BG_OUTLINE
 10
78.915500
 20
-23.376100
 40
0.100000
 41
0.100000
 42
0.000000
  0
VERTEX
  8
BG_OUTLINE
 10
79.477100
 20
-22.403300
 40
0.100000
 41
0.100000
 42
0.000000
  0
SEQEND
  0
POLYLINE
  8
BG_OUTLINE
 66
1
 70
0
 40
0.000000
 41
0.000000
 39
0.000000
  0
VERTEX
  8
BG_OUTLINE
 10
82.248400
 20
-24.003300
 40
0.100000
 41
0.100000
 42
1.000000
  0
VERTEX
  8
BG_OUTLINE
 10
79.477100
 20
-22.403300
 40
0.100000
 41
0.100000
 42
0.000000
  0
SEQEND
  0
POLYLINE
  8
BG_OUTLINE
 66
1
 70
0
 40
0.000000
 41
0.000000
 39
0.000000
  0
VERTEX
  8
BG_OUTLINE
 10
67.310000
 20
-6.576100
 40
0.100000
 41
0.100000
 42
0.000000
  0
VERTEX
  8
BG_OUTLINE
 10
66.748400
 20
-7.548900
 40
0.100000
 41
0.100000
 42
0.000000
  0
SEQEND
  0
POLYLINE
  8
BG_OUTLINE
 66
1
 70
0
 40
0.000000
 41
0.000000
 39
0.000000
  0
VERTEX
  8
BG_OUTLINE
 10
70.112700
 20
-13.376100
 40
0.100000
 41
0.100000
 42
0.999983
  0
VERTEX
  8
BG_OUTLINE
 10
70.112700
 20
-16.576100
 40
0.100000
 41
0.100000
 42
0.000000
  0
SEQEND
  0
POLYLINE
  8
BG_OUTLINE
 66
1
 70
0
 40
0.000000
 41
0.000000
 39
0.000000
  0
VERTEX
  8
BG_OUTLINE
 10
71.236000
 20
-13.376100
 40
0.100000
 41
0.100000
 42
0.000000
  0
VERTEX
  8
BG_OUTLINE
 10
67.310000
 20
-6.576100
 40
0.100000
 41
0.100000
 42
0.000000
  0
SEQEND
  0
POLYLINE
  8
BG_OUTLINE
 66
1
 70
0
 40
0.000000
 41
0.000000
 39
0.000000
  0
VERTEX
  8
BG_OUTLINE
 10
71.236000
 20
-16.576100
 40
0.100000
 41
0.100000
 42
0.000000
  0
VERTEX
  8
BG_OUTLINE
 10
70.112700
 20
-16.576100
 40
0.100000
 41
0.100000
 42
0.000000
  0
SEQEND
  0
POLYLINE
  8
BG_OUTLINE
 66
1
 70
0
 40
0.000000
 41
0.000000
 39
0.000000
  0
VERTEX
  8
BG_OUTLINE
 10
71.236000
 20
-13.376100
 40
0.100000
 41
0.100000
 42
0.000000
  0
VERTEX
  8
BG_OUTLINE
 10
70.112700
 20
-13.376100
 40
0.100000
 41
0.100000
 42
0.000000
  0
SEQEND
  0
POLYLINE
  8
BG_OUTLINE
 66
1
 70
0
 40
0.000000
 41
0.000000
 39
0.000000
  0
VERTEX
  8
BG_OUTLINE
 10
67.310000
 20
-23.376100
 40
0.100000
 41
0.100000
 42
0.000000
  0
VERTEX
  8
BG_OUTLINE
 10
66.748400
 20
-22.403300
 40
0.100000
 41
0.100000
 42
0.000000
  0
SEQEND
  0
POLYLINE
  8
BG_OUTLINE
 66
1
 70
0
 40
0.000000
 41
0.000000
 39
0.000000
  0
VERTEX
  8
BG_OUTLINE
 10
67.310000
 20
-23.376100
 40
0.100000
 41
0.100000
 42
0.000000
  0
VERTEX
  8
BG_OUTLINE
 10
71.236000
 20
-16.576100
 40
0.100000
 41
0.100000
 42
0.000000
  0
SEQEND
  0
POLYLINE
  8
BG_OUTLINE
 66
1
 70
0
 40
0.000000
 41
0.000000
 39
0.000000
  0
VERTEX
  8
BG_OUTLINE
 10
64.538700
 20
-4.976100
 40
0.100000
 41
0.100000
 42
0.000000
  0
VERTEX
  8
BG_OUTLINE
 10
63.977100
 20
-5.948900
 40
0.100000
 41
0.100000
 42
0.000000
  0
SEQEND
  0
POLYLINE
  8
BG_OUTLINE
 66
1
 70
0
 40
0.000000
 41
0.000000
 39
0.000000
  0
VERTEX
  8
BG_OUTLINE
 10
63.977100
 20
-5.948900
 40
0.100000
 41
0.100000
 42
1.000000
  0
VERTEX
  8
BG_OUTLINE
 10
66.748400
 20
-7.548900
 40
0.100000
 41
0.100000
 42
0.000000
  0
SEQEND
  0
POLYLINE
  8
BG_OUTLINE
 66
1
 70
0
 40
0.000000
 41
0.000000
 39
0.000000
  0
VERTEX
  8
BG_OUTLINE
 10
66.748400
 20
-22.403300
 40
0.100000
 41
0.100000
 42
1.000000
  0
VERTEX
  8
BG_OUTLINE
 10
63.977100
 20
-24.003300
 40
0.100000
 41
0.100000
 42
0.000000
  0
SEQEND
  0
POLYLINE
  8
BG_OUTLINE
 66
1
 70
0
 40
0.000000
 41
0.000000
 39
0.000000
  0
VERTEX
  8
BG_OUTLINE
 10
64.538700
 20
-24.976100
 40
0.100000
 41
0.100000
 42
0.000000
  0
VERTEX
  8
BG_OUTLINE
 10
63.977100
 20
-24.003300
 40
0.100000
 41
0.100000
 42
0.000000
  0
SEQEND
  0
POLYLINE
  8
BG_OUTLINE
 66
1
 70
0
 40
0.000000
 41
0.000000
 39
0.000000
  0
VERTEX
  8
BG_OUTLINE
 10
56.686800
 20
-4.976100
 40
0.100000
 41
0.100000
 42
0.000000
  0
VERTEX
  8
BG_OUTLINE
 10
57.248400
 20
-5.948900
 40
0.100000
 41
0.100000
 42
0.000000
  0
SEQEND
  0
POLYLINE
  8
BG_OUTLINE
 66
1
 70
0
 40
0.000000
 41
0.000000
 39
0.000000
  0
VERTEX
  8
BG_OUTLINE
 10
53.915500
 20
-6.576100
 40
0.100000
 41
0.100000
 42
0.000000
  0
VERTEX
  8
BG_OUTLINE
 10
54.477100
 20
-7.548900
 40
0.100000
 41
0.100000
 42
0.000000
  0
SEQEND
  0
POLYLINE
  8
BG_OUTLINE
 66
1
 70
0
 40
0.000000
 41
0.000000
 39
0.000000
  0
VERTEX
  8
BG_OUTLINE
 10
54.477100
 20
-7.548900
 40
0.100000
 41
0.100000
 42
1.000000
  0
VERTEX
  8
BG_OUTLINE
 10
57.248400
 20
-5.948900
 40
0.100000
 41
0.100000
 42
0.000000
  0
SEQEND
  0
POLYLINE
  8
BG_OUTLINE
 66
1
 70
0
 40
0.000000
 41
0.000000
 39
0.000000
  0
VERTEX
  8
BG_OUTLINE
 10
49.989500
 20
-13.376100
 40
0.100000
 41
0.100000
 42
0.000000
  0
VERTEX
  8
BG_OUTLINE
 10
51.112700
 20
-13.376100
 40
0.100000
 41
0.100000
 42
0.000000
  0
SEQEND
  0
POLYLINE
  8
BG_OUTLINE
 66
1
 70
0
 40
0.000000
 41
0.000000
 39
0.000000
  0
VERTEX
  8
BG_OUTLINE
 10
49.989500
 20
-13.376100
 40
0.100000
 41
0.100000
 42
0.000000
  0
VERTEX
  8
BG_OUTLINE
 10
53.915500
 20
-6.576100
 40
0.100000
 41
0.100000
 42
0.000000
  0
SEQEND
  0
POLYLINE
  8
BG_OUTLINE
 66
1
 70
0
 40
0.000000
 41
0.000000
 39
0.000000
  0
VERTEX
  8
BG_OUTLINE
 10
49.989500
 20
-16.576100
 40
0.100000
 41
0.100000
 42
0.000000
  0
VERTEX
  8
BG_OUTLINE
 10
51.112700
 20
-16.576100
 40
0.100000
 41
0.100000
 42
0.000000
  0
SEQEND
  0
POLYLINE
  8
BG_OUTLINE
 66
1
 70
0
 40
0.000000
 41
0.000000
 39
0.000000
  0
VERTEX
  8
BG_OUTLINE
 10
51.112700
 20
-16.576100
 40
0.100000
 41
0.100000
 42
1.000017
  0
VERTEX
  8
BG_OUTLINE
 10
51.112700
 20
-13.376100
 40
0.100000
 41
0.100000
 42
0.000000
  0
SEQEND
  0
POLYLINE
  8
BG_OUTLINE
 66
1
 70
0
 40
0.000000
 41
0.000000
 39
0.000000
  0
VERTEX
  8
BG_OUTLINE
 10
53.915500
 20
-23.376100
 40
0.100000
 41
0.100000
 42
0.000000
  0
VERTEX
  8
BG_OUTLINE
 10
49.989500
 20
-16.576100
 40
0.100000
 41
0.100000
 42
0.000000
  0
SEQEND
  0
POLYLINE
  8
BG_OUTLINE
 66
1
 70
0
 40
0.000000
 41
0.000000
 39
0.000000
  0
VERTEX
  8
BG_OUTLINE
 10
53.915500
 20
-23.376100
 40
0.100000
 41
0.100000
 42
0.000000
  0
VERTEX
  8
BG_OUTLINE
 10
54.477100
 20
-22.403300
 40
0.100000
 41
0.100000
 42
0.000000
  0
SEQEND
  0
POLYLINE
  8
BG_OUTLINE
 66
1
 70
0
 40
0.000000
 41
0.000000
 39
0.000000
  0
VERTEX
  8
BG_OUTLINE
 10
57.248400
 20
-24.003300
 40
0.100000
 41
0.100000
 42
1.000000
  0
VERTEX
  8
BG_OUTLINE
 10
54.477100
 20
-22.403300
 40
0.100000
 41
0.100000
 42
0.000000
  0
SEQEND
  0
POLYLINE
  8
BG_OUTLINE
 66
1
 70
0
 40
0.000000
 41
0.000000
 39
0.000000
  0
VERTEX
  8
BG_OUTLINE
 10
56.686800
 20
-24.976100
 40
0.100000
 41
0.100000
 42
0.000000
  0
VERTEX
  8
BG_OUTLINE
 10
64.538700
 20
-24.976100
 40
0.100000
 41
0.100000
 42
0.000000
  0
SEQEND
  0
POLYLINE
  8
BG_OUTLINE
 66
1
 70
0
 40
0.000000
 41
0.000000
 39
0.000000
  0
VERTEX
  8
BG_OUTLINE
 10
56.686800
 20
-24.976100
 40
0.100000
 41
0.100000
 42
0.000000
  0
VERTEX
  8
BG_OUTLINE
 10
57.248400
 20
-24.003300
 40
0.100000
 41
0.100000
 42
0.000000
  0
SEQEND
  0
POLYLINE
  8
BG_OUTLINE
 66
1
 70
0
 40
0.000000
 41
0.000000
 39
0.000000
  0
VERTEX
  8
BG_OUTLINE
 10
46.236000
 20
-13.376100
 40
0.100000
 41
0.100000
 42
0.000000
  0
VERTEX
  8
BG_OUTLINE
 10
45.112700
 20
-13.376100
 40
0.100000
 41
0.100000
 42
0.000000
  0
SEQEND
  0
POLYLINE
  8
BG_OUTLINE
 66
1
 70
0
 40
0.000000
 41
0.000000
 39
0.000000
  0
VERTEX
  8
BG_OUTLINE
 10
46.236000
 20
-16.576100
 40
0.100000
 41
0.100000
 42
0.000000
  0
VERTEX
  8
BG_OUTLINE
 10
45.112700
 20
-16.576100
 40
0.100000
 41
0.100000
 42
0.000000
  0
SEQEND
  0
POLYLINE
  8
BG_OUTLINE
 66
1
 70
0
 40
0.000000
 41
0.000000
 39
0.000000
  0
VERTEX
  8
BG_OUTLINE
 10
46.236000
 20
-13.376100
 40
0.100000
 41
0.100000
 42
0.000000
  0
VERTEX
  8
BG_OUTLINE
 10
42.310000
 20
-6.576100
 40
0.100000
 41
0.100000
 42
0.000000
  0
SEQEND
  0
POLYLINE
  8
BG_OUTLINE
 66
1
 70
0
 40
0.000000
 41
0.000000
 39
0.000000
  0
VERTEX
  8
BG_OUTLINE
 10
45.112700
 20
-13.376100
 40
0.100000
 41
0.100000
 42
0.999983
  0
VERTEX
  8
BG_OUTLINE
 10
45.112700
 20
-16.576100
 40
0.100000
 41
0.100000
 42
0.000000
  0
SEQEND
  0
POLYLINE
  8
BG_OUTLINE
 66
1
 70
0
 40
0.000000
 41
0.000000
 39
0.000000
  0
VERTEX
  8
BG_OUTLINE
 10
42.310000
 20
-23.376100
 40
0.100000
 41
0.100000
 42
0.000000
  0
VERTEX
  8
BG_OUTLINE
 10
46.236000
 20
-16.576100
 40
0.100000
 41
0.100000
 42
0.000000
  0
SEQEND
  0
POLYLINE
  8
BG_OUTLINE
 66
1
 70
0
 40
0.000000
 41
0.000000
 39
0.000000
  0
VERTEX
  8
BG_OUTLINE
 10
38.977100
 20
-5.948900
 40
0.100000
 41
0.100000
 42
1.000000
  0
VERTEX
  8
BG_OUTLINE
 10
41.748400
 20
-7.548900
 40
0.100000
 41
0.100000
 42
0.000000
  0
SEQEND
  0
POLYLINE
  8
BG_OUTLINE
 66
1
 70
0
 40
0.000000
 41
0.000000
 39
0.000000
  0
VERTEX
  8
BG_OUTLINE
 10
39.538700
 20
-4.976100
 40
0.100000
 41
0.100000
 42
0.000000
  0
VERTEX
  8
BG_OUTLINE
 10
38.977100
 20
-5.948900
 40
0.100000
 41
0.100000
 42
0.000000
  0
SEQEND
  0
POLYLINE
  8
BG_OUTLINE
 66
1
 70
0
 40
0.000000
 41
0.000000
 39
0.000000
  0
VERTEX
  8
BG_OUTLINE
 10
42.310000
 20
-6.576100
 40
0.100000
 41
0.100000
 42
0.000000
  0
VERTEX
  8
BG_OUTLINE
 10
41.748400
 20
-7.548900
 40
0.100000
 41
0.100000
 42
0.000000
  0
SEQEND
  0
POLYLINE
  8
BG_OUTLINE
 66
1
 70
0
 40
0.000000
 41
0.000000
 39
0.000000
  0
VERTEX
  8
BG_OUTLINE
 10
39.538700
 20
-24.976100
 40
0.100000
 41
0.100000
 42
0.000000
  0
VERTEX
  8
BG_OUTLINE
 10
38.977100
 20
-24.003300
 40
0.100000
 41
0.100000
 42
0.000000
  0
SEQEND
  0
POLYLINE
  8
BG_OUTLINE
 66
1
 70
0
 40
0.000000
 41
0.000000
 39
0.000000
  0
VERTEX
  8
BG_OUTLINE
 10
41.748400
 20
-22.403300
 40
0.100000
 41
0.100000
 42
1.000000
  0
VERTEX
  8
BG_OUTLINE
 10
38.977100
 20
-24.003300
 40
0.100000
 41
0.100000
 42
0.000000
  0
SEQEND
  0
POLYLINE
  8
BG_OUTLINE
 66
1
 70
0
 40
0.000000
 41
0.000000
 39
0.000000
  0
VERTEX
  8
BG_OUTLINE
 10
42.310000
 20
-23.376100
 40
0.100000
 41
0.100000
 42
0.000000
  0
VERTEX
  8
BG_OUTLINE
 10
41.748400
 20
-22.403300
 40
0.100000
 41
0.100000
 42
0.000000
  0
SEQEND
  0
POLYLINE
  8
BG_OUTLINE
 66
1
 70
0
 40
0.000000
 41
0.000000
 39
0.000000
  0
VERTEX
  8
BG_OUTLINE
 10
29.477100
 20
-7.548900
 40
0.100000
 41
0.100000
 42
1.000000
  0
VERTEX
  8
BG_OUTLINE
 10
32.248400
 20
-5.948900
 40
0.100000
 41
0.100000
 42
0.000000
  0
SEQEND
  0
POLYLINE
  8
BG_OUTLINE
 66
1
 70
0
 40
0.000000
 41
0.000000
 39
0.000000
  0
VERTEX
  8
BG_OUTLINE
 10
28.915500
 20
-6.576100
 40
0.100000
 41
0.100000
 42
0.000000
  0
VERTEX
  8
BG_OUTLINE
 10
29.477100
 20
-7.548900
 40
0.100000
 41
0.100000
 42
0.000000
  0
SEQEND
  0
POLYLINE
  8
BG_OUTLINE
 66
1
 70
0
 40
0.000000
 41
0.000000
 39
0.000000
  0
VERTEX
  8
BG_OUTLINE
 10
31.686800
 20
-4.976100
 40
0.100000
 41
0.100000
 42
0.000000
  0
VERTEX
  8
BG_OUTLINE
 10
32.248400
 20
-5.948900
 40
0.100000
 41
0.100000
 42
0.000000
  0
SEQEND
  0
POLYLINE
  8
BG_OUTLINE
 66
1
 70
0
 40
0.000000
 41
0.000000
 39
0.000000
  0
VERTEX
  8
BG_OUTLINE
 10
31.686800
 20
-4.976100
 40
0.100000
 41
0.100000
 42
0.000000
  0
VERTEX
  8
BG_OUTLINE
 10
39.538700
 20
-4.976100
 40
0.100000
 41
0.100000
 42
0.000000
  0
SEQEND
  0
POLYLINE
  8
BG_OUTLINE
 66
1
 70
0
 40
0.000000
 41
0.000000
 39
0.000000
  0
VERTEX
  8
BG_OUTLINE
 10
31.686800
 20
-24.976100
 40
0.100000
 41
0.100000
 42
0.000000
  0
VERTEX
  8
BG_OUTLINE
 10
32.248400
 20
-24.003300
 40
0.100000
 41
0.100000
 42
0.000000
  0
SEQEND
  0
POLYLINE
  8
BG_OUTLINE
 66
1
 70
0
 40
0.000000
 41
0.000000
 39
0.000000
  0
VERTEX
  8
BG_OUTLINE
 10
31.686800
 20
-24.976100
 40
0.100000
 41
0.100000
 42
0.000000
  0
VERTEX
  8
BG_OUTLINE
 10
39.538700
 20
-24.976100
 40
0.100000
 41
0.100000
 42
0.000000
  0
SEQEND
  0
POLYLINE
  8
BG_OUTLINE
 66
1
 70
0
 40
0.000000
 41
0.000000
 39
0.000000
  0
VERTEX
  8
BG_OUTLINE
 10
32.248400
 20
-24.003300
 40
0.100000
 41
0.100000
 42
1.000000
  0
VERTEX
  8
BG_OUTLINE
 10
29.477100
 20
-22.403300
 40
0.100000
 41
0.100000
 42
0.000000
  0
SEQEND
  0
POLYLINE
  8
BG_OUTLINE
 66
1
 70
0
 40
0.000000
 41
0.000000
 39
0.000000
  0
VERTEX
  8
BG_OUTLINE
 10
28.915500
 20
-23.376100
 40
0.100000
 41
0.100000
 42
0.000000
  0
VERTEX
  8
BG_OUTLINE
 10
29.477100
 20
-22.403300
 40
0.100000
 41
0.100000
 42
0.000000
  0
SEQEND
  0
POLYLINE
  8
BG_OUTLINE
 66
1
 70
0
 40
0.000000
 41
0.000000
 39
0.000000
  0
VERTEX
  8
BG_OUTLINE
 10
26.112700
 20
-16.576100
 40
0.100000
 41
0.100000
 42
1.000017
  0
VERTEX
  8
BG_OUTLINE
 10
26.112700
 20
-13.376100
 40
0.100000
 41
0.100000
 42
0.000000
  0
SEQEND
  0
POLYLINE
  8
BG_OUTLINE
 66
1
 70
0
 40
0.000000
 41
0.000000
 39
0.000000
  0
VERTEX
  8
BG_OUTLINE
 10
24.989500
 20
-16.576100
 40
0.100000
 41
0.100000
 42
0.000000
  0
VERTEX
  8
BG_OUTLINE
 10
26.112700
 20
-16.576100
 40
0.100000
 41
0.100000
 42
0.000000
  0
SEQEND
  0
POLYLINE
  8
BG_OUTLINE
 66
1
 70
0
 40
0.000000
 41
0.000000
 39
0.000000
  0
VERTEX
  8
BG_OUTLINE
 10
24.989500
 20
-13.376100
 40
0.100000
 41
0.100000
 42
0.000000
  0
VERTEX
  8
BG_OUTLINE
 10
28.915500
 20
-6.576100
 40
0.100000
 41
0.100000
 42
0.000000
  0
SEQEND
  0
POLYLINE
  8
BG_OUTLINE
 66
1
 70
0
 40
0.000000
 41
0.000000
 39
0.000000
  0
VERTEX
  8
BG_OUTLINE
 10
24.989500
 20
-13.376100
 40
0.100000
 41
0.100000
 42
0.000000
  0
VERTEX
  8
BG_OUTLINE
 10
26.112700
 20
-13.376100
 40
0.100000
 41
0.100000
 42
0.000000
  0
SEQEND
  0
POLYLINE
  8
BG_OUTLINE
 66
1
 70
0
 40
0.000000
 41
0.000000
 39
0.000000
  0
VERTEX
  8
BG_OUTLINE
 10
21.236000
 20
-13.376100
 40
0.100000
 41
0.100000
 42
0.000000
  0
VERTEX
  8
BG_OUTLINE
 10
20.112700
 20
-13.376100
 40
0.100000
 41
0.100000
 42
0.000000
  0
SEQEND
  0
POLYLINE
  8
BG_OUTLINE
 66
1
 70
0
 40
0.000000
 41
0.000000
 39
0.000000
  0
VERTEX
  8
BG_OUTLINE
 10
21.236000
 20
-16.576100
 40
0.100000
 41
0.100000
 42
0.000000
  0
VERTEX
  8
BG_OUTLINE
 10
20.112700
 20
-16.576100
 40
0.100000
 41
0.100000
 42
0.000000
  0
SEQEND
  0
POLYLINE
  8
BG_OUTLINE
 66
1
 70
0
 40
0.000000
 41
0.000000
 39
0.000000
  0
VERTEX
  8
BG_OUTLINE
 10
28.915500
 20
-23.376100
 40
0.100000
 41
0.100000
 42
0.000000
  0
VERTEX
  8
BG_OUTLINE
 10
24.989500
 20
-16.576100
 40
0.100000
 41
0.100000
 42
0.000000
  0
SEQEND
  0
POLYLINE
  8
BG_OUTLINE
 66
1
 70
0
 40
0.000000
 41
0.000000
 39
0.000000
  0
VERTEX
  8
BG_OUTLINE
 10
13.977100
 20
-5.948900
 40
0.100000
 41
0.100000
 42
1.000000
  0
VERTEX
  8
BG_OUTLINE
 10
16.748400
 20
-7.548900
 40
0.100000
 41
0.100000
 42
0.000000
  0
SEQEND
  0
POLYLINE
  8
BG_OUTLINE
 66
1
 70
0
 40
0.000000
 41
0.000000
 39
0.000000
  0
VERTEX
  8
BG_OUTLINE
 10
14.538700
 20
-4.976100
 40
0.100000
 41
0.100000
 42
0.000000
  0
VERTEX
  8
BG_OUTLINE
 10
13.977100
 20
-5.948900
 40
0.100000
 41
0.100000
 42
0.000000
  0
SEQEND
  0
POLYLINE
  8
BG_OUTLINE
 66
1
 70
0
 40
0.000000
 41
0.000000
 39
0.000000
  0
VERTEX
  8
BG_OUTLINE
 10
17.310000
 20
-6.576100
 40
0.100000
 41
0.100000
 42
0.000000
  0
VERTEX
  8
BG_OUTLINE
 10
16.748400
 20
-7.548900
 40
0.100000
 41
0.100000
 42
0.000000
  0
SEQEND
  0
POLYLINE
  8
BG_OUTLINE
 66
1
 70
0
 40
0.000000
 41
0.000000
 39
0.000000
  0
VERTEX
  8
BG_OUTLINE
 10
21.236000
 20
-13.376100
 40
0.100000
 41
0.100000
 42
0.000000
  0
VERTEX
  8
BG_OUTLINE
 10
17.310000
 20
-6.576100
 40
0.100000
 41
0.100000
 42
0.000000
  0
SEQEND
  0
POLYLINE
  8
BG_OUTLINE
 66
1
 70
0
 40
0.000000
 41
0.000000
 39
0.000000
  0
VERTEX
  8
BG_OUTLINE
 10
20.112700
 20
-13.376100
 40
0.100000
 41
0.100000
 42
0.999983
  0
VERTEX
  8
BG_OUTLINE
 10
20.112700
 20
-16.576100
 40
0.100000
 41
0.100000
 42
0.000000
  0
SEQEND
  0
POLYLINE
  8
BG_OUTLINE
 66
1
 70
0
 40
0.000000
 41
0.000000
 39
0.000000
  0
VERTEX
  8
BG_OUTLINE
 10
14.538700
 20
-24.976100
 40
0.100000
 41
0.100000
 42
0.000000
  0
VERTEX
  8
BG_OUTLINE
 10
13.977100
 20
-24.003300
 40
0.100000
 41
0.100000
 42
0.000000
  0
SEQEND
  0
POLYLINE
  8
BG_OUTLINE
 66
1
 70
0
 40
0.000000
 41
0.000000
 39
0.000000
  0
VERTEX
  8
BG_OUTLINE
 10
16.748400
 20
-22.403300
 40
0.100000
 41
0.100000
 42
1.000000
  0
VERTEX
  8
BG_OUTLINE
 10
13.977100
 20
-24.003300
 40
0.100000
 41
0.100000
 42
0.000000
  0
SEQEND
  0
POLYLINE
  8
BG_OUTLINE
 66
1
 70
0
 40
0.000000
 41
0.000000
 39
0.000000
  0
VERTEX
  8
BG_OUTLINE
 10
17.310000
 20
-23.376100
 40
0.100000
 41
0.100000
 42
0.000000
  0
VERTEX
  8
BG_OUTLINE
 10
16.748400
 20
-22.403300
 40
0.100000
 41
0.100000
 42
0.000000
  0
SEQEND
  0
POLYLINE
  8
BG_OUTLINE
 66
1
 70
0
 40
0.000000
 41
0.000000
 39
0.000000
  0
VERTEX
  8
BG_OUTLINE
 10
17.310000
 20
-23.376100
 40
0.100000
 41
0.100000
 42
0.000000
  0
VERTEX
  8
BG_OUTLINE
 10
21.236000
 20
-16.576100
 40
0.100000
 41
0.100000
 42
0.000000
  0
SEQEND
  0
POLYLINE
  8
BG_OUTLINE
 66
1
 70
0
 40
0.000000
 41
0.000000
 39
0.000000
  0
VERTEX
  8
BG_OUTLINE
 10
4.477100
 20
-7.548900
 40
0.100000
 41
0.100000
 42
1.000000
  0
VERTEX
  8
BG_OUTLINE
 10
7.248400
 20
-5.948900
 40
0.100000
 41
0.100000
 42
0.000000
  0
SEQEND
  0
POLYLINE
  8
BG_OUTLINE
 66
1
 70
0
 40
0.000000
 41
0.000000
 39
0.000000
  0
VERTEX
  8
BG_OUTLINE
 10
3.915500
 20
-6.576100
 40
0.100000
 41
0.100000
 42
0.000000
  0
VERTEX
  8
BG_OUTLINE
 10
4.477100
 20
-7.548900
 40
0.100000
 41
0.100000
 42
0.000000
  0
SEQEND
  0
POLYLINE
  8
BG_OUTLINE
 66
1
 70
0
 40
0.000000
 41
0.000000
 39
0.000000
  0
VERTEX
  8
BG_OUTLINE
 10
6.686800
 20
-4.976100
 40
0.100000
 41
0.100000
 42
0.000000
  0
VERTEX
  8
BG_OUTLINE
 10
7.248400
 20
-5.948900
 40
0.100000
 41
0.100000
 42
0.000000
  0
SEQEND
  0
POLYLINE
  8
BG_OUTLINE
 66
1
 70
0
 40
0.000000
 41
0.000000
 39
0.000000
  0
VERTEX
  8
BG_OUTLINE
 10
6.686800
 20
-4.976100
 40
0.100000
 41
0.100000
 42
0.000000
  0
VERTEX
  8
BG_OUTLINE
 10
14.538700
 20
-4.976100
 40
0.100000
 41
0.100000
 42
0.000000
  0
SEQEND
  0
POLYLINE
  8
BG_OUTLINE
 66
1
 70
0
 40
0.000000
 41
0.000000
 39
0.000000
  0
VERTEX
  8
BG_OUTLINE
 10
6.686800
 20
-24.976100
 40
0.100000
 41
0.100000
 42
0.000000
  0
VERTEX
  8
BG_OUTLINE
 10
7.248400
 20
-24.003300
 40
0.100000
 41
0.100000
 42
0.000000
  0
SEQEND
  0
POLYLINE
  8
BG_OUTLINE
 66
1
 70
0
 40
0.000000
 41
0.000000
 39
0.000000
  0
VERTEX
  8
BG_OUTLINE
 10
6.686800
 20
-24.976100
 40
0.100000
 41
0.100000
 42
0.000000
  0
VERTEX
  8
BG_OUTLINE
 10
14.538700
 20
-24.976100
 40
0.100000
 41
0.100000
 42
0.000000
  0
SEQEND
  0
POLYLINE
  8
BG_OUTLINE
 66
1
 70
0
 40
0.000000
 41
0.000000
 39
0.000000
  0
VERTEX
  8
BG_OUTLINE
 10
7.248400
 20
-24.003300
 40
0.100000
 41
0.100000
 42
1.000000
  0
VERTEX
  8
BG_OUTLINE
 10
4.477100
 20
-22.403300
 40
0.100000
 41
0.100000
 42
0.000000
  0
SEQEND
  0
POLYLINE
  8
BG_OUTLINE
 66
1
 70
0
 40
0.000000
 41
0.000000
 39
0.000000
  0
VERTEX
  8
BG_OUTLINE
 10
3.915500
 20
-23.376100
 40
0.100000
 41
0.100000
 42
0.000000
  0
VERTEX
  8
BG_OUTLINE
 10
4.477100
 20
-22.403300
 40
0.100000
 41
0.100000
 42
0.000000
  0
SEQEND
  0
POLYLINE
  8
BG_OUTLINE
 66
1
 70
0
 40
0.000000
 41
0.000000
 39
0.000000
  0
VERTEX
  8
BG_OUTLINE
 10
1.112700
 20
-16.576100
 40
0.100000
 41
0.100000
 42
1.000017
  0
VERTEX
  8
BG_OUTLINE
 10
1.112700
 20
-13.376100
 40
0.100000
 41
0.100000
 42
0.000000
  0
SEQEND
  0
POLYLINE
  8
BG_OUTLINE
 66
1
 70
0
 40
0.000000
 41
0.000000
 39
0.000000
  0
VERTEX
  8
BG_OUTLINE
 10
-0.010500
 20
-16.576100
 40
0.100000
 41
0.100000
 42
0.000000
  0
VERTEX
  8
BG_OUTLINE
 10
1.112700
 20
-16.576100
 40
0.100000
 41
0.100000
 42
0.000000
  0
SEQEND
  0
POLYLINE
  8
BG_OUTLINE
 66
1
 70
0
 40
0.000000
 41
0.000000
 39
0.000000
  0
VERTEX
  8
BG_OUTLINE
 10
-0.010500
 20
-13.376100
 40
0.100000
 41
0.100000
 42
0.000000
  0
VERTEX
  8
BG_OUTLINE
 10
3.915500
 20
-6.576100
 40
0.100000
 41
0.100000
 42
0.000000
  0
SEQEND
  0
POLYLINE
  8
BG_OUTLINE
 66
1
 70
0
 40
0.000000
 41
0.000000
 39
0.000000
  0
VERTEX
  8
BG_OUTLINE
 10
-0.010500
 20
-13.376100
 40
0.100000
 41
0.100000
 42
0.000000
  0
VERTEX
  8
BG_OUTLINE
 10
1.112700
 20
-13.376100
 40
0.100000
 41
0.100000
 42
0.000000
  0
SEQEND
  0
POLYLINE
  8
BG_OUTLINE
 66
1
 70
0
 40
0.000000
 41
0.000000
 39
0.000000
  0
VERTEX
  8
BG_OUTLINE
 10
3.915500
 20
-23.376100
 40
0.100000
 41
0.100000
 42
0.000000
  0
VERTEX
  8
BG_OUTLINE
 10
-0.010500
 20
-16.576100
 40
0.100000
 41
0.100000
 42
0.000000
  0
SEQEND
  0
POLYLINE
  8
BG_OUTLINE
 66
1
 70
0
 40
0.000000
 41
0.000000
 39
0.000000
  0
VERTEX
  8
BG_OUTLINE
 10
121.236000
 20
11.623900
 40
0.100000
 41
0.100000
 42
0.000000
  0
VERTEX
  8
BG_OUTLINE
 10
120.112700
 20
11.623900
 40
0.100000
 41
0.100000
 42
0.000000
  0
SEQEND
  0
POLYLINE
  8
BG_OUTLINE
 66
1
 70
0
 40
0.000000
 41
0.000000
 39
0.000000
  0
VERTEX
  8
BG_OUTLINE
 10
121.236000
 20
8.423900
 40
0.100000
 41
0.100000
 42
0.000000
  0
VERTEX
  8
BG_OUTLINE
 10
120.112700
 20
8.423900
 40
0.100000
 41
0.100000
 42
0.000000
  0
SEQEND
  0
POLYLINE
  8
BG_OUTLINE
 66
1
 70
0
 40
0.000000
 41
0.000000
 39
0.000000
  0
VERTEX
  8
BG_OUTLINE
 10
121.236000
 20
11.623900
 40
0.100000
 41
0.100000
 42
0.000000
  0
VERTEX
  8
BG_OUTLINE
 10
117.310000
 20
18.423900
 40
0.100000
 41
0.100000
 42
0.000000
  0
SEQEND
  0
POLYLINE
  8
BG_OUTLINE
 66
1
 70
0
 40
0.000000
 41
0.000000
 39
0.000000
  0
VERTEX
  8
BG_OUTLINE
 10
120.112700
 20
11.623900
 40
0.100000
 41
0.100000
 42
0.999983
  0
VERTEX
  8
BG_OUTLINE
 10
120.112700
 20
8.423900
 40
0.100000
 41
0.100000
 42
0.000000
  0
SEQEND
  0
POLYLINE
  8
BG_OUTLINE
 66
1
 70
0
 40
0.000000
 41
0.000000
 39
0.000000
  0
VERTEX
  8
BG_OUTLINE
 10
117.310000
 20
1.623900
 40
0.100000
 41
0.100000
 42
0.000000
  0
VERTEX
  8
BG_OUTLINE
 10
121.236000
 20
8.423900
 40
0.100000
 41
0.100000
 42
0.000000
  0
SEQEND
  0
POLYLINE
  8
BG_OUTLINE
 66
1
 70
0
 40
0.000000
 41
0.000000
 39
0.000000
  0
VERTEX
  8
BG_OUTLINE
 10
113.977100
 20
19.051100
 40
0.100000
 41
0.100000
 42
1.000000
  0
VERTEX
  8
BG_OUTLINE
 10
116.748400
 20
17.451100
 40
0.100000
 41
0.100000
 42
0.000000
  0
SEQEND
  0
POLYLINE
  8
BG_OUTLINE
 66
1
 70
0
 40
0.000000
 41
0.000000
 39
0.000000
  0
VERTEX
  8
BG_OUTLINE
 10
114.538700
 20
20.023900
 40
0.100000
 41
0.100000
 42
0.000000
  0
VERTEX
  8
BG_OUTLINE
 10
113.977100
 20
19.051100
 40
0.100000
 41
0.100000
 42
0.000000
  0
SEQEND
  0
POLYLINE
  8
BG_OUTLINE
 66
1
 70
0
 40
0.000000
 41
0.000000
 39
0.000000
  0
VERTEX
  8
BG_OUTLINE
 10
117.310000
 20
18.423900
 40
0.100000
 41
0.100000
 42
0.000000
  0
VERTEX
  8
BG_OUTLINE
 10
116.748400
 20
17.451100
 40
0.100000
 41
0.100000
 42
0.000000
  0
SEQEND
  0
POLYLINE
  8
BG_OUTLINE
 66
1
 70
0
 40
0.000000
 41
0.000000
 39
0.000000
  0
VERTEX
  8
BG_OUTLINE
 10
114.538700
 20
0.023900
 40
0.100000
 41
0.100000
 42
0.000000
  0
VERTEX
  8
BG_OUTLINE
 10
113.977100
 20
0.996700
 40
0.100000
 41
0.100000
 42
0.000000
  0
SEQEND
  0
POLYLINE
  8
BG_OUTLINE
 66
1
 70
0
 40
0.000000
 41
0.000000
 39
0.000000
  0
VERTEX
  8
BG_OUTLINE
 10
116.748400
 20
2.596700
 40
0.100000
 41
0.100000
 42
1.000000
  0
VERTEX
  8
BG_OUTLINE
 10
113.977100
 20
0.996700
 40
0.100000
 41
0.100000
 42
0.000000
  0
SEQEND
  0
POLYLINE
  8
BG_OUTLINE
 66
1
 70
0
 40
0.000000
 41
0.000000
 39
0.000000
  0
VERTEX
  8
BG_OUTLINE
 10
117.310000
 20
1.623900
 40
0.100000
 41
0.100000
 42
0.000000
  0
VERTEX
  8
BG_OUTLINE
 10
116.748400
 20
2.596700
 40
0.100000
 41
0.100000
 42
0.000000
  0
SEQEND
  0
POLYLINE
  8
BG_OUTLINE
 66
1
 70
0
 40
0.000000
 41
0.000000
 39
0.000000
  0
VERTEX
  8
BG_OUTLINE
 10
104.477100
 20
17.451100
 40
0.100000
 41
0.100000
 42
1.000000
  0
VERTEX
  8
BG_OUTLINE
 10
107.248400
 20
19.051100
 40
0.100000
 41
0.100000
 42
0.000000
  0
SEQEND
  0
POLYLINE
  8
BG_OUTLINE
 66
1
 70
0
 40
0.000000
 41
0.000000
 39
0.000000
  0
VERTEX
  8
BG_OUTLINE
 10
103.915500
 20
18.423900
 40
0.100000
 41
0.100000
 42
0.000000
  0
VERTEX
  8
BG_OUTLINE
 10
104.477100
 20
17.451100
 40
0.100000
 41
0.100000
 42
0.000000
  0
SEQEND
  0
POLYLINE
  8
BG_OUTLINE
 66
1
 70
0
 40
0.000000
 41
0.000000
 39
0.000000
  0
VERTEX
  8
BG_OUTLINE
 10
106.686800
 20
20.023900
 40
0.100000
 41
0.100000
 42
0.000000
  0
VERTEX
  8
BG_OUTLINE
 10
107.248400
 20
19.051100
 40
0.100000
 41
0.100000
 42
0.000000
  0
SEQEND
  0
POLYLINE
  8
BG_OUTLINE
 66
1
 70
0
 40
0.000000
 41
0.000000
 39
0.000000
  0
VERTEX
  8
BG_OUTLINE
 10
106.686800
 20
0.023900
 40
0.100000
 41
0.100000
 42
0.000000
  0
VERTEX
  8
BG_OUTLINE
 10
107.248400
 20
0.996700
 40
0.100000
 41
0.100000
 42
0.000000
  0
SEQEND
  0
POLYLINE
  8
BG_OUTLINE
 66
1
 70
0
 40
0.000000
 41
0.000000
 39
0.000000
  0
VERTEX
  8
BG_OUTLINE
 10
106.686800
 20
0.023900
 40
0.100000
 41
0.100000
 42
0.000000
  0
VERTEX
  8
BG_OUTLINE
 10
114.538700
 20
0.023900
 40
0.100000
 41
0.100000
 42
0.000000
  0
SEQEND
  0
POLYLINE
  8
BG_OUTLINE
 66
1
 70
0
 40
0.000000
 41
0.000000
 39
0.000000
  0
VERTEX
  8
BG_OUTLINE
 10
107.248400
 20
0.996700
 40
0.100000
 41
0.100000
 42
1.000000
  0
VERTEX
  8
BG_OUTLINE
 10
104.477100
 20
2.596700
 40
0.100000
 41
0.100000
 42
0.000000
  0
SEQEND
  0
POLYLINE
  8
BG_OUTLINE
 66
1
 70
0
 40
0.000000
 41
0.000000
 39
0.000000
  0
VERTEX
  8
BG_OUTLINE
 10
103.915500
 20
1.623900
 40
0.100000
 41
0.100000
 42
0.000000
  0
VERTEX
  8
BG_OUTLINE
 10
104.477100
 20
2.596700
 40
0.100000
 41
0.100000
 42
0.000000
  0
SEQEND
  0
POLYLINE
  8
BG_OUTLINE
 66
1
 70
0
 40
0.000000
 41
0.000000
 39
0.000000
  0
VERTEX
  8
BG_OUTLINE
 10
101.112700
 20
8.423900
 40
0.100000
 41
0.100000
 42
1.000017
  0
VERTEX
  8
BG_OUTLINE
 10
101.112700
 20
11.623900
 40
0.100000
 41
0.100000
 42
0.000000
  0
SEQEND
  0
POLYLINE
  8
BG_OUTLINE
 66
1
 70
0
 40
0.000000
 41
0.000000
 39
0.000000
  0
VERTEX
  8
BG_OUTLINE
 10
99.989500
 20
8.423900
 40
0.100000
 41
0.100000
 42
0.000000
  0
VERTEX
  8
BG_OUTLINE
 10
101.112700
 20
8.423900
 40
0.100000
 41
0.100000
 42
0.000000
  0
SEQEND
  0
POLYLINE
  8
BG_OUTLINE
 66
1
 70
0
 40
0.000000
 41
0.000000
 39
0.000000
  0
VERTEX
  8
BG_OUTLINE
 10
99.989500
 20
11.623900
 40
0.100000
 41
0.100000
 42
0.000000
  0
VERTEX
  8
BG_OUTLINE
 10
103.915500
 20
18.423900
 40
0.100000
 41
0.100000
 42
0.000000
  0
SEQEND
  0
POLYLINE
  8
BG_OUTLINE
 66
1
 70
0
 40
0.000000
 41
0.000000
 39
0.000000
  0
VERTEX
  8
BG_OUTLINE
 10
99.989500
 20
11.623900
 40
0.100000
 41
0.100000
 42
0.000000
  0
VERTEX
  8
BG_OUTLINE
 10
101.112700
 20
11.623900
 40
0.100000
 41
0.100000
 42
0.000000
  0
SEQEND
  0
POLYLINE
  8
BG_OUTLINE
 66
1
 70
0
 40
0.000000
 41
0.000000
 39
0.000000
  0
VERTEX
  8
BG_OUTLINE
 10
103.915500
 20
1.623900
 40
0.100000
 41
0.100000
 42
0.000000
  0
VERTEX
  8
BG_OUTLINE
 10
99.989500
 20
8.423900
 40
0.100000
 41
0.100000
 42
0.000000
  0
SEQEND
  0
POLYLINE
  8
BG_OUTLINE
 66
1
 70
0
 40
0.000000
 41
0.000000
 39
0.000000
  0
VERTEX
  8
BG_OUTLINE
 10
96.236000
 20
11.623900
 40
0.100000
 41
0.100000
 42
0.000000
  0
VERTEX
  8
BG_OUTLINE
 10
95.112700
 20
11.623900
 40
0.100000
 41
0.100000
 42
0.000000
  0
SEQEND
  0
POLYLINE
  8
BG_OUTLINE
 66
1
 70
0
 40
0.000000
 41
0.000000
 39
0.000000
  0
VERTEX
  8
BG_OUTLINE
 10
96.236000
 20
8.423900
 40
0.100000
 41
0.100000
 42
0.000000
  0
VERTEX
  8
BG_OUTLINE
 10
95.112700
 20
8.423900
 40
0.100000
 41
0.100000
 42
0.000000
  0
SEQEND
  0
POLYLINE
  8
BG_OUTLINE
 66
1
 70
0
 40
0.000000
 41
0.000000
 39
0.000000
  0
VERTEX
  8
BG_OUTLINE
 10
96.236000
 20
11.623900
 40
0.100000
 41
0.100000
 42
0.000000
  0
VERTEX
  8
BG_OUTLINE
 10
92.310000
 20
18.423900
 40
0.100000
 41
0.100000
 42
0.000000
  0
SEQEND
  0
POLYLINE
  8
BG_OUTLINE
 66
1
 70
0
 40
0.000000
 41
0.000000
 39
0.000000
  0
VERTEX
  8
BG_OUTLINE
 10
95.112700
 20
11.623900
 40
0.100000
 41
0.100000
 42
0.999983
  0
VERTEX
  8
BG_OUTLINE
 10
95.112700
 20
8.423900
 40
0.100000
 41
0.100000
 42
0.000000
  0
SEQEND
  0
POLYLINE
  8
BG_OUTLINE
 66
1
 70
0
 40
0.000000
 41
0.000000
 39
0.000000
  0
VERTEX
  8
BG_OUTLINE
 10
92.310000
 20
1.623900
 40
0.100000
 41
0.100000
 42
0.000000
  0
VERTEX
  8
BG_OUTLINE
 10
96.236000
 20
8.423900
 40
0.100000
 41
0.100000
 42
0.000000
  0
SEQEND
  0
POLYLINE
  8
BG_OUTLINE
 66
1
 70
0
 40
0.000000
 41
0.000000
 39
0.000000
  0
VERTEX
  8
BG_OUTLINE
 10
88.977100
 20
19.051100
 40
0.100000
 41
0.100000
 42
1.000000
  0
VERTEX
  8
BG_OUTLINE
 10
91.748400
 20
17.451100
 40
0.100000
 41
0.100000
 42
0.000000
  0
SEQEND
  0
POLYLINE
  8
BG_OUTLINE
 66
1
 70
0
 40
0.000000
 41
0.000000
 39
0.000000
  0
VERTEX
  8
BG_OUTLINE
 10
89.538700
 20
20.023900
 40
0.100000
 41
0.100000
 42
0.000000
  0
VERTEX
  8
BG_OUTLINE
 10
88.977100
 20
19.051100
 40
0.100000
 41
0.100000
 42
0.000000
  0
SEQEND
  0
POLYLINE
  8
BG_OUTLINE
 66
1
 70
0
 40
0.000000
 41
0.000000
 39
0.000000
  0
VERTEX
  8
BG_OUTLINE
 10
92.310000
 20
18.423900
 40
0.100000
 41
0.100000
 42
0.000000
  0
VERTEX
  8
BG_OUTLINE
 10
91.748400
 20
17.451100
 40
0.100000
 41
0.100000
 42
0.000000
  0
SEQEND
  0
POLYLINE
  8
BG_OUTLINE
 66
1
 70
0
 40
0.000000
 41
0.000000
 39
0.000000
  0
VERTEX
  8
BG_OUTLINE
 10
89.538700
 20
0.023900
 40
0.100000
 41
0.100000
 42
0.000000
  0
VERTEX
  8
BG_OUTLINE
 10
88.977100
 20
0.996700
 40
0.100000
 41
0.100000
 42
0.000000
  0
SEQEND
  0
POLYLINE
  8
BG_OUTLINE
 66
1
 70
0
 40
0.000000
 41
0.000000
 39
0.000000
  0
VERTEX
  8
BG_OUTLINE
 10
91.748400
 20
2.596700
 40
0.100000
 41
0.100000
 42
1.000000
  0
VERTEX
  8
BG_OUTLINE
 10
88.977100
 20
0.996700
 40
0.100000
 41
0.100000
 42
0.000000
  0
SEQEND
  0
POLYLINE
  8
BG_OUTLINE
 66
1
 70
0
 40
0.000000
 41
0.000000
 39
0.000000
  0
VERTEX
  8
BG_OUTLINE
 10
92.310000
 20
1.623900
 40
0.100000
 41
0.100000
 42
0.000000
  0
VERTEX
  8
BG_OUTLINE
 10
91.748400
 20
2.596700
 40
0.100000
 41
0.100000
 42
0.000000
  0
SEQEND
  0
POLYLINE
  8
BG_OUTLINE
 66
1
 70
0
 40
0.000000
 41
0.000000
 39
0.000000
  0
VERTEX
  8
BG_OUTLINE
 10
79.477100
 20
17.451100
 40
0.100000
 41
0.100000
 42
1.000000
  0
VERTEX
  8
BG_OUTLINE
 10
82.248400
 20
19.051100
 40
0.100000
 41
0.100000
 42
0.000000
  0
SEQEND
  0
POLYLINE
  8
BG_OUTLINE
 66
1
 70
0
 40
0.000000
 41
0.000000
 39
0.000000
  0
VERTEX
  8
BG_OUTLINE
 10
78.915500
 20
18.423900
 40
0.100000
 41
0.100000
 42
0.000000
  0
VERTEX
  8
BG_OUTLINE
 10
79.477100
 20
17.451100
 40
0.100000
 41
0.100000
 42
0.000000
  0
SEQEND
  0
POLYLINE
  8
BG_OUTLINE
 66
1
 70
0
 40
0.000000
 41
0.000000
 39
0.000000
  0
VERTEX
  8
BG_OUTLINE
 10
81.686800
 20
20.023900
 40
0.100000
 41
0.100000
 42
0.000000
  0
VERTEX
  8
BG_OUTLINE
 10
82.248400
 20
19.051100
 40
0.100000
 41
0.100000
 42
0.000000
  0
SEQEND
  0
POLYLINE
  8
BG_OUTLINE
 66
1
 70
0
 40
0.000000
 41
0.000000
 39
0.000000
  0
VERTEX
  8
BG_OUTLINE
 10
81.686800
 20
0.023900
 40
0.100000
 41
0.100000
 42
0.000000
  0
VERTEX
  8
BG_OUTLINE
 10
82.248400
 20
0.996700
 40
0.100000
 41
0.100000
 42
0.000000
  0
SEQEND
  0
POLYLINE
  8
BG_OUTLINE
 66
1
 70
0
 40
0.000000
 41
0.000000
 39
0.000000
  0
VERTEX
  8
BG_OUTLINE
 10
81.686800
 20
0.023900
 40
0.100000
 41
0.100000
 42
0.000000
  0
VERTEX
  8
BG_OUTLINE
 10
89.538700
 20
0.023900
 40
0.100000
 41
0.100000
 42
0.000000
  0
SEQEND
  0
POLYLINE
  8
BG_OUTLINE
 66
1
 70
0
 40
0.000000
 41
0.000000
 39
0.000000
  0
VERTEX
  8
BG_OUTLINE
 10
82.248400
 20
0.996700
 40
0.100000
 41
0.100000
 42
1.000000
  0
VERTEX
  8
BG_OUTLINE
 10
79.477100
 20
2.596700
 40
0.100000
 41
0.100000
 42
0.000000
  0
SEQEND
  0
POLYLINE
  8
BG_OUTLINE
 66
1
 70
0
 40
0.000000
 41
0.000000
 39
0.000000
  0
VERTEX
  8
BG_OUTLINE
 10
78.915500
 20
1.623900
 40
0.100000
 41
0.100000
 42
0.000000
  0
VERTEX
  8
BG_OUTLINE
 10
79.477100
 20
2.596700
 40
0.100000
 41
0.100000
 42
0.000000
  0
SEQEND
  0
POLYLINE
  8
BG_OUTLINE
 66
1
 70
0
 40
0.000000
 41
0.000000
 39
0.000000
  0
VERTEX
  8
BG_OUTLINE
 10
76.112700
 20
8.423900
 40
0.100000
 41
0.100000
 42
1.000017
  0
VERTEX
  8
BG_OUTLINE
 10
76.112700
 20
11.623900
 40
0.100000
 41
0.100000
 42
0.000000
  0
SEQEND
  0
POLYLINE
  8
BG_OUTLINE
 66
1
 70
0
 40
0.000000
 41
0.000000
 39
0.000000
  0
VERTEX
  8
BG_OUTLINE
 10
74.989500
 20
8.423900
 40
0.100000
 41
0.100000
 42
0.000000
  0
VERTEX
  8
BG_OUTLINE
 10
76.112700
 20
8.423900
 40
0.100000
 41
0.100000
 42
0.000000
  0
SEQEND
  0
POLYLINE
  8
BG_OUTLINE
 66
1
 70
0
 40
0.000000
 41
0.000000
 39
0.000000
  0
VERTEX
  8
BG_OUTLINE
 10
74.989500
 20
11.623900
 40
0.100000
 41
0.100000
 42
0.000000
  0
VERTEX
  8
BG_OUTLINE
 10
78.915500
 20
18.423900
 40
0.100000
 41
0.100000
 42
0.000000
  0
SEQEND
  0
POLYLINE
  8
BG_OUTLINE
 66
1
 70
0
 40
0.000000
 41
0.000000
 39
0.000000
  0
VERTEX
  8
BG_OUTLINE
 10
74.989500
 20
11.623900
 40
0.100000
 41
0.100000
 42
0.000000
  0
VERTEX
  8
BG_OUTLINE
 10
76.112700
 20
11.623900
 40
0.100000
 41
0.100000
 42
0.000000
  0
SEQEND
  0
POLYLINE
  8
BG_OUTLINE
 66
1
 70
0
 40
0.000000
 41
0.000000
 39
0.000000
  0
VERTEX
  8
BG_OUTLINE
 10
78.915500
 20
1.623900
 40
0.100000
 41
0.100000
 42
0.000000
  0
VERTEX
  8
BG_OUTLINE
 10
74.989500
 20
8.423900
 40
0.100000
 41
0.100000
 42
0.000000
  0
SEQEND
  0
POLYLINE
  8
BG_OUTLINE
 66
1
 70
0
 40
0.000000
 41
0.000000
 39
0.000000
  0
VERTEX
  8
BG_OUTLINE
 10
71.236000
 20
11.623900
 40
0.100000
 41
0.100000
 42
0.000000
  0
VERTEX
  8
BG_OUTLINE
 10
70.112700
 20
11.623900
 40
0.100000
 41
0.100000
 42
0.000000
  0
SEQEND
  0
POLYLINE
  8
BG_OUTLINE
 66
1
 70
0
 40
0.000000
 41
0.000000
 39
0.000000
  0
VERTEX
  8
BG_OUTLINE
 10
71.236000
 20
8.423900
 40
0.100000
 41
0.100000
 42
0.000000
  0
VERTEX
  8
BG_OUTLINE
 10
70.112700
 20
8.423900
 40
0.100000
 41
0.100000
 42
0.000000
  0
SEQEND
  0
POLYLINE
  8
BG_OUTLINE
 66
1
 70
0
 40
0.000000
 41
0.000000
 39
0.000000
  0
VERTEX
  8
BG_OUTLINE
 10
71.236000
 20
11.623900
 40
0.100000
 41
0.100000
 42
0.000000
  0
VERTEX
  8
BG_OUTLINE
 10
67.310000
 20
18.423900
 40
0.100000
 41
0.100000
 42
0.000000
  0
SEQEND
  0
POLYLINE
  8
BG_OUTLINE
 66
1
 70
0
 40
0.000000
 41
0.000000
 39
0.000000
  0
VERTEX
  8
BG_OUTLINE
 10
70.112700
 20
11.623900
 40
0.100000
 41
0.100000
 42
0.999983
  0
VERTEX
  8
BG_OUTLINE
 10
70.112700
 20
8.423900
 40
0.100000
 41
0.100000
 42
0.000000
  0
SEQEND
  0
POLYLINE
  8
BG_OUTLINE
 66
1
 70
0
 40
0.000000
 41
0.000000
 39
0.000000
  0
VERTEX
  8
BG_OUTLINE
 10
67.310000
 20
1.623900
 40
0.100000
 41
0.100000
 42
0.000000
  0
VERTEX
  8
BG_OUTLINE
 10
71.236000
 20
8.423900
 40
0.100000
 41
0.100000
 42
0.000000
  0
SEQEND
  0
POLYLINE
  8
BG_OUTLINE
 66
1
 70
0
 40
0.000000
 41
0.000000
 39
0.000000
  0
VERTEX
  8
BG_OUTLINE
 10
63.977100
 20
19.051100
 40
0.100000
 41
0.100000
 42
1.000000
  0
VERTEX
  8
BG_OUTLINE
 10
66.748400
 20
17.451100
 40
0.100000
 41
0.100000
 42
0.000000
  0
SEQEND
  0
POLYLINE
  8
BG_OUTLINE
 66
1
 70
0
 40
0.000000
 41
0.000000
 39
0.000000
  0
VERTEX
  8
BG_OUTLINE
 10
64.538700
 20
20.023900
 40
0.100000
 41
0.100000
 42
0.000000
  0
VERTEX
  8
BG_OUTLINE
 10
63.977100
 20
19.051100
 40
0.100000
 41
0.100000
 42
0.000000
  0
SEQEND
  0
POLYLINE
  8
BG_OUTLINE
 66
1
 70
0
 40
0.000000
 41
0.000000
 39
0.000000
  0
VERTEX
  8
BG_OUTLINE
 10
67.310000
 20
18.423900
 40
0.100000
 41
0.100000
 42
0.000000
  0
VERTEX
  8
BG_OUTLINE
 10
66.748400
 20
17.451100
 40
0.100000
 41
0.100000
 42
0.000000
  0
SEQEND
  0
POLYLINE
  8
BG_OUTLINE
 66
1
 70
0
 40
0.000000
 41
0.000000
 39
0.000000
  0
VERTEX
  8
BG_OUTLINE
 10
64.538700
 20
0.023900
 40
0.100000
 41
0.100000
 42
0.000000
  0
VERTEX
  8
BG_OUTLINE
 10
63.977100
 20
0.996700
 40
0.100000
 41
0.100000
 42
0.000000
  0
SEQEND
  0
POLYLINE
  8
BG_OUTLINE
 66
1
 70
0
 40
0.000000
 41
0.000000
 39
0.000000
  0
VERTEX
  8
BG_OUTLINE
 10
66.748400
 20
2.596700
 40
0.100000
 41
0.100000
 42
1.000000
  0
VERTEX
  8
BG_OUTLINE
 10
63.977100
 20
0.996700
 40
0.100000
 41
0.100000
 42
0.000000
  0
SEQEND
  0
POLYLINE
  8
BG_OUTLINE
 66
1
 70
0
 40
0.000000
 41
0.000000
 39
0.000000
  0
VERTEX
  8
BG_OUTLINE
 10
67.310000
 20
1.623900
 40
0.100000
 41
0.100000
 42
0.000000
  0
VERTEX
  8
BG_OUTLINE
 10
66.748400
 20
2.596700
 40
0.100000
 41
0.100000
 42
0.000000
  0
SEQEND
  0
POLYLINE
  8
BG_OUTLINE
 66
1
 70
0
 40
0.000000
 41
0.000000
 39
0.000000
  0
VERTEX
  8
BG_OUTLINE
 10
54.477100
 20
17.451100
 40
0.100000
 41
0.100000
 42
1.000000
  0
VERTEX
  8
BG_OUTLINE
 10
57.248400
 20
19.051100
 40
0.100000
 41
0.100000
 42
0.000000
  0
SEQEND
  0
POLYLINE
  8
BG_OUTLINE
 66
1
 70
0
 40
0.000000
 41
0.000000
 39
0.000000
  0
VERTEX
  8
BG_OUTLINE
 10
53.915500
 20
18.423900
 40
0.100000
 41
0.100000
 42
0.000000
  0
VERTEX
  8
BG_OUTLINE
 10
54.477100
 20
17.451100
 40
0.100000
 41
0.100000
 42
0.000000
  0
SEQEND
  0
POLYLINE
  8
BG_OUTLINE
 66
1
 70
0
 40
0.000000
 41
0.000000
 39
0.000000
  0
VERTEX
  8
BG_OUTLINE
 10
56.686800
 20
20.023900
 40
0.100000
 41
0.100000
 42
0.000000
  0
VERTEX
  8
BG_OUTLINE
 10
57.248400
 20
19.051100
 40
0.100000
 41
0.100000
 42
0.000000
  0
SEQEND
  0
POLYLINE
  8
BG_OUTLINE
 66
1
 70
0
 40
0.000000
 41
0.000000
 39
0.000000
  0
VERTEX
  8
BG_OUTLINE
 10
56.686800
 20
0.023900
 40
0.100000
 41
0.100000
 42
0.000000
  0
VERTEX
  8
BG_OUTLINE
 10
57.248400
 20
0.996700
 40
0.100000
 41
0.100000
 42
0.000000
  0
SEQEND
  0
POLYLINE
  8
BG_OUTLINE
 66
1
 70
0
 40
0.000000
 41
0.000000
 39
0.000000
  0
VERTEX
  8
BG_OUTLINE
 10
56.686800
 20
0.023900
 40
0.100000
 41
0.100000
 42
0.000000
  0
VERTEX
  8
BG_OUTLINE
 10
64.538700
 20
0.023900
 40
0.100000
 41
0.100000
 42
0.000000
  0
SEQEND
  0
POLYLINE
  8
BG_OUTLINE
 66
1
 70
0
 40
0.000000
 41
0.000000
 39
0.000000
  0
VERTEX
  8
BG_OUTLINE
 10
57.248400
 20
0.996700
 40
0.100000
 41
0.100000
 42
1.000000
  0
VERTEX
  8
BG_OUTLINE
 10
54.477100
 20
2.596700
 40
0.100000
 41
0.100000
 42
0.000000
  0
SEQEND
  0
POLYLINE
  8
BG_OUTLINE
 66
1
 70
0
 40
0.000000
 41
0.000000
 39
0.000000
  0
VERTEX
  8
BG_OUTLINE
 10
53.915500
 20
1.623900
 40
0.100000
 41
0.100000
 42
0.000000
  0
VERTEX
  8
BG_OUTLINE
 10
54.477100
 20
2.596700
 40
0.100000
 41
0.100000
 42
0.000000
  0
SEQEND
  0
POLYLINE
  8
BG_OUTLINE
 66
1
 70
0
 40
0.000000
 41
0.000000
 39
0.000000
  0
VERTEX
  8
BG_OUTLINE
 10
51.112700
 20
8.423900
 40
0.100000
 41
0.100000
 42
1.000017
  0
VERTEX
  8
BG_OUTLINE
 10
51.112700
 20
11.623900
 40
0.100000
 41
0.100000
 42
0.000000
  0
SEQEND
  0
POLYLINE
  8
BG_OUTLINE
 66
1
 70
0
 40
0.000000
 41
0.000000
 39
0.000000
  0
VERTEX
  8
BG_OUTLINE
 10
49.989500
 20
8.423900
 40
0.100000
 41
0.100000
 42
0.000000
  0
VERTEX
  8
BG_OUTLINE
 10
51.112700
 20
8.423900
 40
0.100000
 41
0.100000
 42
0.000000
  0
SEQEND
  0
POLYLINE
  8
BG_OUTLINE
 66
1
 70
0
 40
0.000000
 41
0.000000
 39
0.000000
  0
VERTEX
  8
BG_OUTLINE
 10
49.989500
 20
11.623900
 40
0.100000
 41
0.100000
 42
0.000000
  0
VERTEX
  8
BG_OUTLINE
 10
53.915500
 20
18.423900
 40
0.100000
 41
0.100000
 42
0.000000
  0
SEQEND
  0
POLYLINE
  8
BG_OUTLINE
 66
1
 70
0
 40
0.000000
 41
0.000000
 39
0.000000
  0
VERTEX
  8
BG_OUTLINE
 10
49.989500
 20
11.623900
 40
0.100000
 41
0.100000
 42
0.000000
  0
VERTEX
  8
BG_OUTLINE
 10
51.112700
 20
11.623900
 40
0.100000
 41
0.100000
 42
0.000000
  0
SEQEND
  0
POLYLINE
  8
BG_OUTLINE
 66
1
 70
0
 40
0.000000
 41
0.000000
 39
0.000000
  0
VERTEX
  8
BG_OUTLINE
 10
53.915500
 20
1.623900
 40
0.100000
 41
0.100000
 42
0.000000
  0
VERTEX
  8
BG_OUTLINE
 10
49.989500
 20
8.423900
 40
0.100000
 41
0.100000
 42
0.000000
  0
SEQEND
  0
POLYLINE
  8
BG_OUTLINE
 66
1
 70
0
 40
0.000000
 41
0.000000
 39
0.000000
  0
VERTEX
  8
BG_OUTLINE
 10
46.236000
 20
11.623900
 40
0.100000
 41
0.100000
 42
0.000000
  0
VERTEX
  8
BG_OUTLINE
 10
45.112700
 20
11.623900
 40
0.100000
 41
0.100000
 42
0.000000
  0
SEQEND
  0
POLYLINE
  8
BG_OUTLINE
 66
1
 70
0
 40
0.000000
 41
0.000000
 39
0.000000
  0
VERTEX
  8
BG_OUTLINE
 10
46.236000
 20
8.423900
 40
0.100000
 41
0.100000
 42
0.000000
  0
VERTEX
  8
BG_OUTLINE
 10
45.112700
 20
8.423900
 40
0.100000
 41
0.100000
 42
0.000000
  0
SEQEND
  0
POLYLINE
  8
BG_OUTLINE
 66
1
 70
0
 40
0.000000
 41
0.000000
 39
0.000000
  0
VERTEX
  8
BG_OUTLINE
 10
38.977100
 20
19.051100
 40
0.100000
 41
0.100000
 42
1.000000
  0
VERTEX
  8
BG_OUTLINE
 10
41.748400
 20
17.451100
 40
0.100000
 41
0.100000
 42
0.000000
  0
SEQEND
  0
POLYLINE
  8
BG_OUTLINE
 66
1
 70
0
 40
0.000000
 41
0.000000
 39
0.000000
  0
VERTEX
  8
BG_OUTLINE
 10
39.538700
 20
20.023900
 40
0.100000
 41
0.100000
 42
0.000000
  0
VERTEX
  8
BG_OUTLINE
 10
38.977100
 20
19.051100
 40
0.100000
 41
0.100000
 42
0.000000
  0
SEQEND
  0
POLYLINE
  8
BG_OUTLINE
 66
1
 70
0
 40
0.000000
 41
0.000000
 39
0.000000
  0
VERTEX
  8
BG_OUTLINE
 10
42.310000
 20
18.423900
 40
0.100000
 41
0.100000
 42
0.000000
  0
VERTEX
  8
BG_OUTLINE
 10
41.748400
 20
17.451100
 40
0.100000
 41
0.100000
 42
0.000000
  0
SEQEND
  0
POLYLINE
  8
BG_OUTLINE
 66
1
 70
0
 40
0.000000
 41
0.000000
 39
0.000000
  0
VERTEX
  8
BG_OUTLINE
 10
46.236000
 20
11.623900
 40
0.100000
 41
0.100000
 42
0.000000
  0
VERTEX
  8
BG_OUTLINE
 10
42.310000
 20
18.423900
 40
0.100000
 41
0.100000
 42
0.000000
  0
SEQEND
  0
POLYLINE
  8
BG_OUTLINE
 66
1
 70
0
 40
0.000000
 41
0.000000
 39
0.000000
  0
VERTEX
  8
BG_OUTLINE
 10
45.112700
 20
11.623900
 40
0.100000
 41
0.100000
 42
0.999983
  0
VERTEX
  8
BG_OUTLINE
 10
45.112700
 20
8.423900
 40
0.100000
 41
0.100000
 42
0.000000
  0
SEQEND
  0
POLYLINE
  8
BG_OUTLINE
 66
1
 70
0
 40
0.000000
 41
0.000000
 39
0.000000
  0
VERTEX
  8
BG_OUTLINE
 10
39.538700
 20
0.023900
 40
0.100000
 41
0.100000
 42
0.000000
  0
VERTEX
  8
BG_OUTLINE
 10
38.977100
 20
0.996700
 40
0.100000
 41
0.100000
 42
0.000000
  0
SEQEND
  0
POLYLINE
  8
BG_OUTLINE
 66
1
 70
0
 40
0.000000
 41
0.000000
 39
0.000000
  0
VERTEX
  8
BG_OUTLINE
 10
41.748400
 20
2.596700
 40
0.100000
 41
0.100000
 42
1.000000
  0
VERTEX
  8
BG_OUTLINE
 10
38.977100
 20
0.996700
 40
0.100000
 41
0.100000
 42
0.000000
  0
SEQEND
  0
POLYLINE
  8
BG_OUTLINE
 66
1
 70
0
 40
0.000000
 41
0.000000
 39
0.000000
  0
VERTEX
  8
BG_OUTLINE
 10
42.310000
 20
1.623900
 40
0.100000
 41
0.100000
 42
0.000000
  0
VERTEX
  8
BG_OUTLINE
 10
41.748400
 20
2.596700
 40
0.100000
 41
0.100000
 42
0.000000
  0
SEQEND
  0
POLYLINE
  8
BG_OUTLINE
 66
1
 70
0
 40
0.000000
 41
0.000000
 39
0.000000
  0
VERTEX
  8
BG_OUTLINE
 10
42.310000
 20
1.623900
 40
0.100000
 41
0.100000
 42
0.000000
  0
VERTEX
  8
BG_OUTLINE
 10
46.236000
 20
8.423900
 40
0.100000
 41
0.100000
 42
0.000000
  0
SEQEND
  0
POLYLINE
  8
BG_OUTLINE
 66
1
 70
0
 40
0.000000
 41
0.000000
 39
0.000000
  0
VERTEX
  8
BG_OUTLINE
 10
29.477100
 20
17.451100
 40
0.100000
 41
0.100000
 42
1.000000
  0
VERTEX
  8
BG_OUTLINE
 10
32.248400
 20
19.051100
 40
0.100000
 41
0.100000
 42
0.000000
  0
SEQEND
  0
POLYLINE
  8
BG_OUTLINE
 66
1
 70
0
 40
0.000000
 41
0.000000
 39
0.000000
  0
VERTEX
  8
BG_OUTLINE
 10
28.915500
 20
18.423900
 40
0.100000
 41
0.100000
 42
0.000000
  0
VERTEX
  8
BG_OUTLINE
 10
29.477100
 20
17.451100
 40
0.100000
 41
0.100000
 42
0.000000
  0
SEQEND
  0
POLYLINE
  8
BG_OUTLINE
 66
1
 70
0
 40
0.000000
 41
0.000000
 39
0.000000
  0
VERTEX
  8
BG_OUTLINE
 10
31.686800
 20
20.023900
 40
0.100000
 41
0.100000
 42
0.000000
  0
VERTEX
  8
BG_OUTLINE
 10
32.248400
 20
19.051100
 40
0.100000
 41
0.100000
 42
0.000000
  0
SEQEND
  0
POLYLINE
  8
BG_OUTLINE
 66
1
 70
0
 40
0.000000
 41
0.000000
 39
0.000000
  0
VERTEX
  8
BG_OUTLINE
 10
31.686800
 20
20.023900
 40
0.100000
 41
0.100000
 42
0.000000
  0
VERTEX
  8
BG_OUTLINE
 10
39.538700
 20
20.023900
 40
0.100000
 41
0.100000
 42
0.000000
  0
SEQEND
  0
POLYLINE
  8
BG_OUTLINE
 66
1
 70
0
 40
0.000000
 41
0.000000
 39
0.000000
  0
VERTEX
  8
BG_OUTLINE
 10
31.686800
 20
0.023900
 40
0.100000
 41
0.100000
 42
0.000000
  0
VERTEX
  8
BG_OUTLINE
 10
32.248400
 20
0.996700
 40
0.100000
 41
0.100000
 42
0.000000
  0
SEQEND
  0
POLYLINE
  8
BG_OUTLINE
 66
1
 70
0
 40
0.000000
 41
0.000000
 39
0.000000
  0
VERTEX
  8
BG_OUTLINE
 10
31.686800
 20
0.023900
 40
0.100000
 41
0.100000
 42
0.000000
  0
VERTEX
  8
BG_OUTLINE
 10
39.538700
 20
0.023900
 40
0.100000
 41
0.100000
 42
0.000000
  0
SEQEND
  0
POLYLINE
  8
BG_OUTLINE
 66
1
 70
0
 40
0.000000
 41
0.000000
 39
0.000000
  0
VERTEX
  8
BG_OUTLINE
 10
32.248400
 20
0.996700
 40
0.100000
 41
0.100000
 42
1.000000
  0
VERTEX
  8
BG_OUTLINE
 10
29.477100
 20
2.596700
 40
0.100000
 41
0.100000
 42
0.000000
  0
SEQEND
  0
POLYLINE
  8
BG_OUTLINE
 66
1
 70
0
 40
0.000000
 41
0.000000
 39
0.000000
  0
VERTEX
  8
BG_OUTLINE
 10
28.915500
 20
1.623900
 40
0.100000
 41
0.100000
 42
0.000000
  0
VERTEX
  8
BG_OUTLINE
 10
29.477100
 20
2.596700
 40
0.100000
 41
0.100000
 42
0.000000
  0
SEQEND
  0
POLYLINE
  8
BG_OUTLINE
 66
1
 70
0
 40
0.000000
 41
0.000000
 39
0.000000
  0
VERTEX
  8
BG_OUTLINE
 10
26.112700
 20
8.423900
 40
0.100000
 41
0.100000
 42
1.000017
  0
VERTEX
  8
BG_OUTLINE
 10
26.112700
 20
11.623900
 40
0.100000
 41
0.100000
 42
0.000000
  0
SEQEND
  0
POLYLINE
  8
BG_OUTLINE
 66
1
 70
0
 40
0.000000
 41
0.000000
 39
0.000000
  0
VERTEX
  8
BG_OUTLINE
 10
24.989500
 20
8.423900
 40
0.100000
 41
0.100000
 42
0.000000
  0
VERTEX
  8
BG_OUTLINE
 10
26.112700
 20
8.423900
 40
0.100000
 41
0.100000
 42
0.000000
  0
SEQEND
  0
POLYLINE
  8
BG_OUTLINE
 66
1
 70
0
 40
0.000000
 41
0.000000
 39
0.000000
  0
VERTEX
  8
BG_OUTLINE
 10
24.989500
 20
11.623900
 40
0.100000
 41
0.100000
 42
0.000000
  0
VERTEX
  8
BG_OUTLINE
 10
28.915500
 20
18.423900
 40
0.100000
 41
0.100000
 42
0.000000
  0
SEQEND
  0
POLYLINE
  8
BG_OUTLINE
 66
1
 70
0
 40
0.000000
 41
0.000000
 39
0.000000
  0
VERTEX
  8
BG_OUTLINE
 10
24.989500
 20
11.623900
 40
0.100000
 41
0.100000
 42
0.000000
  0
VERTEX
  8
BG_OUTLINE
 10
26.112700
 20
11.623900
 40
0.100000
 41
0.100000
 42
0.000000
  0
SEQEND
  0
POLYLINE
  8
BG_OUTLINE
 66
1
 70
0
 40
0.000000
 41
0.000000
 39
0.000000
  0
VERTEX
  8
BG_OUTLINE
 10
28.915500
 20
1.623900
 40
0.100000
 41
0.100000
 42
0.000000
  0
VERTEX
  8
BG_OUTLINE
 10
24.989500
 20
8.423900
 40
0.100000
 41
0.100000
 42
0.000000
  0
SEQEND
  0
POLYLINE
  8
BG_OUTLINE
 66
1
 70
0
 40
0.000000
 41
0.000000
 39
0.000000
  0
VERTEX
  8
BG_OUTLINE
 10
3.915500
 20
1.623900
 40
0.100000
 41
0.100000
 42
0.000000
  0
VERTEX
  8
BG_OUTLINE
 10
-0.010500
 20
8.423900
 40
0.100000
 41
0.100000
 42
0.000000
  0
SEQEND
  0
POLYLINE
  8
BG_OUTLINE
 66
1
 70
0
 40
0.000000
 41
0.000000
 39
0.000000
  0
VERTEX
  8
BG_OUTLINE
 10
1.112700
 20
8.423900
 40
0.100000
 41
0.100000
 42
1.000017
  0
VERTEX
  8
BG_OUTLINE
 10
1.112700
 20
11.623900
 40
0.100000
 41
0.100000
 42
0.000000
  0
SEQEND
  0
POLYLINE
  8
BG_OUTLINE
 66
1
 70
0
 40
0.000000
 41
0.000000
 39
0.000000
  0
VERTEX
  8
BG_OUTLINE
 10
-0.010500
 20
8.423900
 40
0.100000
 41
0.100000
 42
0.000000
  0
VERTEX
  8
BG_OUTLINE
 10
1.112700
 20
8.423900
 40
0.100000
 41
0.100000
 42
0.000000
  0
SEQEND
  0
POLYLINE
  8
BG_OUTLINE
 66
1
 70
0
 40
0.000000
 41
0.000000
 39
0.000000
  0
VERTEX
  8
BG_OUTLINE
 10
-0.010500
 20
11.623900
 40
0.100000
 41
0.100000
 42
0.000000
  0
VERTEX
  8
BG_OUTLINE
 10
3.915500
 20
18.423900
 40
0.100000
 41
0.100000
 42
0.000000
  0
SEQEND
  0
POLYLINE
  8
BG_OUTLINE
 66
1
 70
0
 40
0.000000
 41
0.000000
 39
0.000000
  0
VERTEX
  8
BG_OUTLINE
 10
-0.010500
 20
11.623900
 40
0.100000
 41
0.100000
 42
0.000000
  0
VERTEX
  8
BG_OUTLINE
 10
1.112700
 20
11.623900
 40
0.100000
 41
0.100000
 42
0.000000
  0
SEQEND
  0
POLYLINE
  8
BG_OUTLINE
 66
1
 70
0
 40
0.000000
 41
0.000000
 39
0.000000
  0
VERTEX
  8
BG_OUTLINE
 10
6.686800
 20
0.023900
 40
0.100000
 41
0.100000
 42
0.000000
  0
VERTEX
  8
BG_OUTLINE
 10
7.248400
 20
0.996700
 40
0.100000
 41
0.100000
 42
0.000000
  0
SEQEND
  0
POLYLINE
  8
BG_OUTLINE
 66
1
 70
0
 40
0.000000
 41
0.000000
 39
0.000000
  0
VERTEX
  8
BG_OUTLINE
 10
6.686800
 20
0.023900
 40
0.100000
 41
0.100000
 42
0.000000
  0
VERTEX
  8
BG_OUTLINE
 10
14.538700
 20
0.023900
 40
0.100000
 41
0.100000
 42
0.000000
  0
SEQEND
  0
POLYLINE
  8
BG_OUTLINE
 66
1
 70
0
 40
0.000000
 41
0.000000
 39
0.000000
  0
VERTEX
  8
BG_OUTLINE
 10
7.248400
 20
0.996700
 40
0.100000
 41
0.100000
 42
1.000000
  0
VERTEX
  8
BG_OUTLINE
 10
4.477100
 20
2.596700
 40
0.100000
 41
0.100000
 42
0.000000
  0
SEQEND
  0
POLYLINE
  8
BG_OUTLINE
 66
1
 70
0
 40
0.000000
 41
0.000000
 39
0.000000
  0
VERTEX
  8
BG_OUTLINE
 10
3.915500
 20
1.623900
 40
0.100000
 41
0.100000
 42
0.000000
  0
VERTEX
  8
BG_OUTLINE
 10
4.477100
 20
2.596700
 40
0.100000
 41
0.100000
 42
0.000000
  0
SEQEND
  0
POLYLINE
  8
BG_OUTLINE
 66
1
 70
0
 40
0.000000
 41
0.000000
 39
0.000000
  0
VERTEX
  8
BG_OUTLINE
 10
4.477100
 20
17.451100
 40
0.100000
 41
0.100000
 42
1.000000
  0
VERTEX
  8
BG_OUTLINE
 10
7.248400
 20
19.051100
 40
0.100000
 41
0.100000
 42
0.000000
  0
SEQEND
  0
POLYLINE
  8
BG_OUTLINE
 66
1
 70
0
 40
0.000000
 41
0.000000
 39
0.000000
  0
VERTEX
  8
BG_OUTLINE
 10
3.915500
 20
18.423900
 40
0.100000
 41
0.100000
 42
0.000000
  0
VERTEX
  8
BG_OUTLINE
 10
4.477100
 20
17.451100
 40
0.100000
 41
0.100000
 42
0.000000
  0
SEQEND
  0
POLYLINE
  8
BG_OUTLINE
 66
1
 70
0
 40
0.000000
 41
0.000000
 39
0.000000
  0
VERTEX
  8
BG_OUTLINE
 10
6.686800
 20
20.023900
 40
0.100000
 41
0.100000
 42
0.000000
  0
VERTEX
  8
BG_OUTLINE
 10
7.248400
 20
19.051100
 40
0.100000
 41
0.100000
 42
0.000000
  0
SEQEND
  0
POLYLINE
  8
BG_OUTLINE
 66
1
 70
0
 40
0.000000
 41
0.000000
 39
0.000000
  0
VERTEX
  8
BG_OUTLINE
 10
14.538700
 20
0.023900
 40
0.100000
 41
0.100000
 42
0.000000
  0
VERTEX
  8
BG_OUTLINE
 10
13.977100
 20
0.996700
 40
0.100000
 41
0.100000
 42
0.000000
  0
SEQEND
  0
POLYLINE
  8
BG_OUTLINE
 66
1
 70
0
 40
0.000000
 41
0.000000
 39
0.000000
  0
VERTEX
  8
BG_OUTLINE
 10
16.748400
 20
2.596700
 40
0.100000
 41
0.100000
 42
1.000000
  0
VERTEX
  8
BG_OUTLINE
 10
13.977100
 20
0.996700
 40
0.100000
 41
0.100000
 42
0.000000
  0
SEQEND
  0
POLYLINE
  8
BG_OUTLINE
 66
1
 70
0
 40
0.000000
 41
0.000000
 39
0.000000
  0
VERTEX
  8
BG_OUTLINE
 10
17.310000
 20
1.623900
 40
0.100000
 41
0.100000
 42
0.000000
  0
VERTEX
  8
BG_OUTLINE
 10
16.748400
 20
2.596700
 40
0.100000
 41
0.100000
 42
0.000000
  0
SEQEND
  0
POLYLINE
  8
BG_OUTLINE
 66
1
 70
0
 40
0.000000
 41
0.000000
 39
0.000000
  0
VERTEX
  8
BG_OUTLINE
 10
17.310000
 20
1.623900
 40
0.100000
 41
0.100000
 42
0.000000
  0
VERTEX
  8
BG_OUTLINE
 10
21.236000
 20
8.423900
 40
0.100000
 41
0.100000
 42
0.000000
  0
SEQEND
  0
POLYLINE
  8
BG_OUTLINE
 66
1
 70
0
 40
0.000000
 41
0.000000
 39
0.000000
  0
VERTEX
  8
BG_OUTLINE
 10
13.977100
 20
19.051100
 40
0.100000
 41
0.100000
 42
1.000000
  0
VERTEX
  8
BG_OUTLINE
 10
16.748400
 20
17.451100
 40
0.100000
 41
0.100000
 42
0.000000
  0
SEQEND
  0
POLYLINE
  8
BG_OUTLINE
 66
1
 70
0
 40
0.000000
 41
0.000000
 39
0.000000
  0
VERTEX
  8
BG_OUTLINE
 10
14.538700
 20
20.023900
 40
0.100000
 41
0.100000
 42
0.000000
  0
VERTEX
  8
BG_OUTLINE
 10
13.977100
 20
19.051100
 40
0.100000
 41
0.100000
 42
0.000000
  0
SEQEND
  0
POLYLINE
  8
BG_OUTLINE
 66
1
 70
0
 40
0.000000
 41
0.000000
 39
0.000000
  0
VERTEX
  8
BG_OUTLINE
 10
17.310000
 20
18.423900
 40
0.100000
 41
0.100000
 42
0.000000
  0
VERTEX
  8
BG_OUTLINE
 10
16.748400
 20
17.451100
 40
0.100000
 41
0.100000
 42
0.000000
  0
SEQEND
  0
POLYLINE
  8
BG_OUTLINE
 66
1
 70
0
 40
0.000000
 41
0.000000
 39
0.000000
  0
VERTEX
  8
BG_OUTLINE
 10
21.236000
 20
11.623900
 40
0.100000
 41
0.100000
 42
0.000000
  0
VERTEX
  8
BG_OUTLINE
 10
17.310000
 20
18.423900
 40
0.100000
 41
0.100000
 42
0.000000
  0
SEQEND
  0
POLYLINE
  8
BG_OUTLINE
 66
1
 70
0
 40
0.000000
 41
0.000000
 39
0.000000
  0
VERTEX
  8
BG_OUTLINE
 10
20.112700
 20
11.623900
 40
0.100000
 41
0.100000
 42
0.999983
  0
VERTEX
  8
BG_OUTLINE
 10
20.112700
 20
8.423900
 40
0.100000
 41
0.100000
 42
0.000000
  0
SEQEND
  0
POLYLINE
  8
BG_OUTLINE
 66
1
 70
0
 40
0.000000
 41
0.000000
 39
0.000000
  0
VERTEX
  8
BG_OUTLINE
 10
21.236000
 20
11.623900
 40
0.100000
 41
0.100000
 42
0.000000
  0
VERTEX
  8
BG_OUTLINE
 10
20.112700
 20
11.623900
 40
0.100000
 41
0.100000
 42
0.000000
  0
SEQEND
  0
POLYLINE
  8
BG_OUTLINE
 66
1
 70
0
 40
0.000000
 41
0.000000
 39
0.000000
  0
VERTEX
  8
BG_OUTLINE
 10
21.236000
 20
8.423900
 40
0.100000
 41
0.100000
 42
0.000000
  0
VERTEX
  8
BG_OUTLINE
 10
20.112700
 20
8.423900
 40
0.100000
 41
0.100000
 42
0.000000
  0
SEQEND
  0
POLYLINE
  8
BG_SILKSCREEN_TOP
 66
1
 70
1
 40
0.000000
 41
0.000000
 39
0.000000
  0
VERTEX
  8
BG_SILKSCREEN_TOP
 10
18.334000
 20
14.948000
 40
0.000000
 41
0.000000
 42
0.000000
  0
VERTEX
  8
BG_SILKSCREEN_TOP
 10
18.534000
 20
14.948000
 40
0.000000
 41
0.000000
 42
0.000000
  0
VERTEX
  8
BG_SILKSCREEN_TOP
 10
18.534000
 20
14.648000
 40
0.000000
 41
0.000000
 42
0.000000
  0
VERTEX
  8
BG_SILKSCREEN_TOP
 10
18.834000
 20
14.648000
 40
0.000000
 41
0.000000
 42
0.000000
  0
VERTEX
  8
BG_SILKSCREEN_TOP
 10
18.834000
 20
14.448000
 40
0.000000
 41
0.000000
 42
0.000000
  0
VERTEX
  8
BG_SILKSCREEN_TOP
 10
18.534000
 20
14.448000
 40
0.000000
 41
0.000000
 42
0.000000
  0
VERTEX
  8
BG_SILKSCREEN_TOP
 10
18.534000
 20
14.148000
 40
0.000000
 41
0.000000
 42
0.000000
  0
VERTEX
  8
BG_SILKSCREEN_TOP
 10
18.334000
 20
14.148000
 40
0.000000
 41
0.000000
 42
0.000000
  0
VERTEX
  8
BG_SILKSCREEN_TOP
 10
18.334000
 20
14.448000
 40
0.000000
 41
0.000000
 42
0.000000
  0
VERTEX
  8
BG_SILKSCREEN_TOP
 10
18.034000
 20
14.448000
 40
0.000000
 41
0.000000
 42
0.000000
  0
VERTEX
  8
BG_SILKSCREEN_TOP
 10
18.034000
 20
14.648000
 40
0.000000
 41
0.000000
 42
0.000000
  0
VERTEX
  8
BG_SILKSCREEN_TOP
 10
18.334000
 20
14.648000
 40
0.000000
 41
0.000000
 42
0.000000
  0
SEQEND
  0
POLYLINE
  8
BG_SILKSCREEN_TOP
 66
1
 70
1
 40
0.000000
 41
0.000000
 39
0.000000
  0
VERTEX
  8
BG_SILKSCREEN_TOP
 10
2.731000
 20
14.974000
 40
0.000000
 41
0.000000
 42
0.000000
  0
VERTEX
  8
BG_SILKSCREEN_TOP
 10
2.931000
 20
14.974000
 40
0.000000
 41
0.000000
 42
0.000000
  0
VERTEX
  8
BG_SILKSCREEN_TOP
 10
2.931000
 20
14.674000
 40
0.000000
 41
0.000000
 42
0.000000
  0
VERTEX
  8
BG_SILKSCREEN_TOP
 10
3.231000
 20
14.674000
 40
0.000000
 41
0.000000
 42
0.000000
  0
VERTEX
  8
BG_SILKSCREEN_TOP
 10
3.231000
 20
14.474000
 40
0.000000
 41
0.000000
 42
0.000000
  0
VERTEX
  8
BG_SILKSCREEN_TOP
 10
2.931000
 20
14.474000
 40
0.000000
 41
0.000000
 42
0.000000
  0
VERTEX
  8
BG_SILKSCREEN_TOP
 10
2.931000
 20
14.174000
 40
0.000000
 41
0.000000
 42
0.000000
  0
VERTEX
  8
BG_SILKSCREEN_TOP
 10
2.731000
 20
14.174000
 40
0.000000
 41
0.000000
 42
0.000000
  0
VERTEX
  8
BG_SILKSCREEN_TOP
 10
2.731000
 20
14.474000
 40
0.000000
 41
0.000000
 42
0.000000
  0
VERTEX
  8
BG_SILKSCREEN_TOP
 10
2.431000
 20
14.474000
 40
0.000000
 41
0.000000
 42
0.000000
  0
VERTEX
  8
BG_SILKSCREEN_TOP
 10
2.431000
 20
14.674000
 40
0.000000
 41
0.000000
 42
0.000000
  0
VERTEX
  8
BG_SILKSCREEN_TOP
 10
2.731000
 20
14.674000
 40
0.000000
 41
0.000000
 42
0.000000
  0
SEQEND
  0
POLYLINE
  8
BG_SILKSCREEN_TOP
 66
1
 70
1
 40
0.000000
 41
0.000000
 39
0.000000
  0
VERTEX
  8
BG_SILKSCREEN_TOP
 10
14.838000
 20
4.514000
 40
0.000000
 41
0.000000
 42
0.000000
  0
VERTEX
  8
BG_SILKSCREEN_TOP
 10
14.838000
 20
4.314000
 40
0.000000
 41
0.000000
 42
0.000000
  0
VERTEX
  8
BG_SILKSCREEN_TOP
 10
15.638000
 20
4.314000
 40
0.000000
 41
0.000000
 42
0.000000
  0
VERTEX
  8
BG_SILKSCREEN_TOP
 10
15.638000
 20
4.514000
 40
0.000000
 41
0.000000
 42
0.000000
  0
SEQEND
  0
POLYLINE
  8
BG_SILKSCREEN_TOP
 66
1
 70
1
 40
0.000000
 41
0.000000
 39
0.000000
  0
VERTEX
  8
BG_SILKSCREEN_TOP
 10
5.588000
 20
4.394000
 40
0.000000
 41
0.000000
 42
0.000000
  0
VERTEX
  8
BG_SILKSCREEN_TOP
 10
5.588000
 20
4.194000
 40
0.000000
 41
0.000000
 42
0.000000
  0
VERTEX
  8
BG_SILKSCREEN_TOP
 10
6.388000
 20
4.194000
 40
0.000000
 41
0.000000
 42
0.000000
  0
VERTEX
  8
BG_SILKSCREEN_TOP
 10
6.388000
 20
4.394000
 40
0.000000
 41
0.000000
 42
0.000000
  0
SEQEND
  0
POLYLINE
  8
BG_SILKSCREEN_TOP
 66
1
 70
1
 40
0.000000
 41
0.000000
 39
0.000000
  0
VERTEX
  8
BG_SILKSCREEN_TOP
 10
10.200000
 20
1.200000
 40
0.000000
 41
0.000000
 42
0.000000
  0
VERTEX
  8
BG_SILKSCREEN_TOP
 10
10.200000
 20
1.000000
 40
0.000000
 41
0.000000
 42
0.000000
  0
VERTEX
  8
BG_SILKSCREEN_TOP
 10
11.000000
 20
1.000000
 40
0.000000
 41
0.000000
 42
0.000000
  0
VERTEX
  8
BG_SILKSCREEN_TOP
 10
11.000000
 20
1.200000
 40
0.000000
 41
0.000000
 42
0.000000
  0
SEQEND
  0
POLYLINE
  8
BG_SILKSCREEN_TOP
 66
1
 70
1
 40
0.000000
 41
0.000000
 39
0.000000
  0
VERTEX
  8
BG_SILKSCREEN_TOP
 10
10.500000
 20
19.200000
 40
0.000000
 41
0.000000
 42
0.000000
  0
VERTEX
  8
BG_SILKSCREEN_TOP
 10
10.700000
 20
19.200000
 40
0.000000
 41
0.000000
 42
0.000000
  0
VERTEX
  8
BG_SILKSCREEN_TOP
 10
10.700000
 20
18.900000
 40
0.000000
 41
0.000000
 42
0.000000
  0
VERTEX
  8
BG_SILKSCREEN_TOP
 10
11.000000
 20
18.900000
 40
0.000000
 41
0.000000
 42
0.000000
  0
VERTEX
  8
BG_SILKSCREEN_TOP
 10
11.000000
 20
18.700000
 40
0.000000
 41
0.000000
 42
0.000000
  0
VERTEX
  8
BG_SILKSCREEN_TOP
 10
10.700000
 20
18.700000
 40
0.000000
 41
0.000000
 42
0.000000
  0
VERTEX
  8
BG_SILKSCREEN_TOP
 10
10.700000
 20
18.400000
 40
0.000000
 41
0.000000
 42
0.000000
  0
VERTEX
  8
BG_SILKSCREEN_TOP
 10
10.500000
 20
18.400000
 40
0.000000
 41
0.000000
 42
0.000000
  0
VERTEX
  8
BG_SILKSCREEN_TOP
 10
10.500000
 20
18.700000
 40
0.000000
 41
0.000000
 42
0.000000
  0
VERTEX
  8
BG_SILKSCREEN_TOP
 10
10.200000
 20
18.700000
 40
0.000000
 41
0.000000
 42
0.000000
  0
VERTEX
  8
BG_SILKSCREEN_TOP
 10
10.200000
 20
18.900000
 40
0.000000
 41
0.000000
 42
0.000000
  0
VERTEX
  8
BG_SILKSCREEN_TOP
 10
10.500000
 20
18.900000
 40
0.000000
 41
0.000000
 42
0.000000
  0
SEQEND
  0
POLYLINE
  8
MA_NCLEGEND-1-2
 66
1
 70
1
 40
0.000000
 41
0.000000
 39
0.000000
  0
VERTEX
  8
MA_NCLEGEND-1-2
 10
0.000000
 20
-53.200000
 40
0.000000
 41
0.000000
 42
0.000000
  0
VERTEX
  8
MA_NCLEGEND-1-2
 10
0.000000
 20
-36.200000
 40
0.000000
 41
0.000000
 42
0.000000
  0
VERTEX
  8
MA_NCLEGEND-1-2
 10
42.200000
 20
-36.200000
 40
0.000000
 41
0.000000
 42
0.000000
  0
VERTEX
  8
MA_NCLEGEND-1-2
 10
42.200000
 20
-53.200000
 40
0.000000
 41
0.000000
 42
0.000000
  0
SEQEND
  0
POLYLINE
  8
BG_OUTLINE
 66
1
 70
1
 40
0.000000
 41
0.000000
 39
0.000000
  0
VERTEX
  8
BG_OUTLINE
 10
99.989500
 20
-16.576100
 40
0.000000
 41
0.000000
 42
0.000000
  0
VERTEX
  8
BG_OUTLINE
 10
103.915500
 20
-23.376100
 40
0.000000
 41
0.000000
 42
0.000000
  0
VERTEX
  8
BG_OUTLINE
 10
104.477100
 20
-22.403300
 40
0.000000
 41
0.000000
 42
-1.000000
  0
VERTEX
  8
BG_OUTLINE
 10
107.248400
 20
-24.003300
 40
0.000000
 41
0.000000
 42
0.000000
  0
VERTEX
  8
BG_OUTLINE
 10
106.686800
 20
-24.976100
 40
0.000000
 41
0.000000
 42
0.000000
  0
VERTEX
  8
BG_OUTLINE
 10
114.538700
 20
-24.976100
 40
0.000000
 41
0.000000
 42
0.000000
  0
VERTEX
  8
BG_OUTLINE
 10
113.977100
 20
-24.003300
 40
0.000000
 41
0.000000
 42
-1.000000
  0
VERTEX
  8
BG_OUTLINE
 10
116.748400
 20
-22.403300
 40
0.000000
 41
0.000000
 42
0.000000
  0
VERTEX
  8
BG_OUTLINE
 10
117.310000
 20
-23.376100
 40
0.000000
 41
0.000000
 42
0.000000
  0
VERTEX
  8
BG_OUTLINE
 10
121.236000
 20
-16.576100
 40
0.000000
 41
0.000000
 42
0.000000
  0
VERTEX
  8
BG_OUTLINE
 10
120.112700
 20
-16.576100
 40
0.000000
 41
0.000000
 42
-0.999983
  0
VERTEX
  8
BG_OUTLINE
 10
120.112700
 20
-13.376100
 40
0.000000
 41
0.000000
 42
0.000000
  0
VERTEX
  8
BG_OUTLINE
 10
121.236000
 20
-13.376100
 40
0.000000
 41
0.000000
 42
0.000000
  0
VERTEX
  8
BG_OUTLINE
 10
117.310000
 20
-6.576100
 40
0.000000
 41
0.000000
 42
0.000000
  0
VERTEX
  8
BG_OUTLINE
 10
116.748400
 20
-7.548900
 40
0.000000
 41
0.000000
 42
-1.000000
  0
VERTEX
  8
BG_OUTLINE
 10
113.977100
 20
-5.948900
 40
0.000000
 41
0.000000
 42
0.000000
  0
VERTEX
  8
BG_OUTLINE
 10
114.538700
 20
-4.976100
 40
0.000000
 41
0.000000
 42
0.000000
  0
VERTEX
  8
BG_OUTLINE
 10
106.686800
 20
-4.976100
 40
0.000000
 41
0.000000
 42
0.000000
  0
VERTEX
  8
BG_OUTLINE
 10
107.248400
 20
-5.948900
 40
0.000000
 41
0.000000
 42
-1.000000
  0
VERTEX
  8
BG_OUTLINE
 10
104.477100
 20
-7.548900
 40
0.000000
 41
0.000000
 42
0.000000
  0
VERTEX
  8
BG_OUTLINE
 10
103.915500
 20
-6.576100
 40
0.000000
 41
0.000000
 42
0.000000
  0
VERTEX
  8
BG_OUTLINE
 10
99.989500
 20
-13.376100
 40
0.000000
 41
0.000000
 42
0.000000
  0
VERTEX
  8
BG_OUTLINE
 10
101.112700
 20
-13.376100
 40
0.000000
 41
0.000000
 42
-1.000017
  0
VERTEX
  8
BG_OUTLINE
 10
101.112700
 20
-16.576100
 40
0.000000
 41
0.000000
 42
0.000000
  0
SEQEND
  0
POLYLINE
  8
BG_OUTLINE
 66
1
 70
1
 40
0.000000
 41
0.000000
 39
0.000000
  0
VERTEX
  8
BG_OUTLINE
 10
74.989500
 20
-16.576100
 40
0.000000
 41
0.000000
 42
0.000000
  0
VERTEX
  8
BG_OUTLINE
 10
78.915500
 20
-23.376100
 40
0.000000
 41
0.000000
 42
0.000000
  0
VERTEX
  8
BG_OUTLINE
 10
79.477100
 20
-22.403300
 40
0.000000
 41
0.000000
 42
-1.000000
  0
VERTEX
  8
BG_OUTLINE
 10
82.248400
 20
-24.003300
 40
0.000000
 41
0.000000
 42
0.000000
  0
VERTEX
  8
BG_OUTLINE
 10
81.686800
 20
-24.976100
 40
0.000000
 41
0.000000
 42
0.000000
  0
VERTEX
  8
BG_OUTLINE
 10
89.538700
 20
-24.976100
 40
0.000000
 41
0.000000
 42
0.000000
  0
VERTEX
  8
BG_OUTLINE
 10
88.977100
 20
-24.003300
 40
0.000000
 41
0.000000
 42
-1.000000
  0
VERTEX
  8
BG_OUTLINE
 10
91.748400
 20
-22.403300
 40
0.000000
 41
0.000000
 42
0.000000
  0
VERTEX
  8
BG_OUTLINE
 10
92.310000
 20
-23.376100
 40
0.000000
 41
0.000000
 42
0.000000
  0
VERTEX
  8
BG_OUTLINE
 10
96.236000
 20
-16.576100
 40
0.000000
 41
0.000000
 42
0.000000
  0
VERTEX
  8
BG_OUTLINE
 10
95.112700
 20
-16.576100
 40
0.000000
 41
0.000000
 42
-0.999983
  0
VERTEX
  8
BG_OUTLINE
 10
95.112700
 20
-13.376100
 40
0.000000
 41
0.000000
 42
0.000000
  0
VERTEX
  8
BG_OUTLINE
 10
96.236000
 20
-13.376100
 40
0.000000
 41
0.000000
 42
0.000000
  0
VERTEX
  8
BG_OUTLINE
 10
92.310000
 20
-6.576100
 40
0.000000
 41
0.000000
 42
0.000000
  0
VERTEX
  8
BG_OUTLINE
 10
91.748400
 20
-7.548900
 40
0.000000
 41
0.000000
 42
-1.000000
  0
VERTEX
  8
BG_OUTLINE
 10
88.977100
 20
-5.948900
 40
0.000000
 41
0.000000
 42
0.000000
  0
VERTEX
  8
BG_OUTLINE
 10
89.538700
 20
-4.976100
 40
0.000000
 41
0.000000
 42
0.000000
  0
VERTEX
  8
BG_OUTLINE
 10
81.686800
 20
-4.976100
 40
0.000000
 41
0.000000
 42
0.000000
  0
VERTEX
  8
BG_OUTLINE
 10
82.248400
 20
-5.948900
 40
0.000000
 41
0.000000
 42
-1.000000
  0
VERTEX
  8
BG_OUTLINE
 10
79.477100
 20
-7.548900
 40
0.000000
 41
0.000000
 42
0.000000
  0
VERTEX
  8
BG_OUTLINE
 10
78.915500
 20
-6.576100
 40
0.000000
 41
0.000000
 42
0.000000
  0
VERTEX
  8
BG_OUTLINE
 10
74.989500
 20
-13.376100
 40
0.000000
 41
0.000000
 42
0.000000
  0
VERTEX
  8
BG_OUTLINE
 10
76.112700
 20
-13.376100
 40
0.000000
 41
0.000000
 42
-1.000017
  0
VERTEX
  8
BG_OUTLINE
 10
76.112700
 20
-16.576100
 40
0.000000
 41
0.000000
 42
0.000000
  0
SEQEND
  0
POLYLINE
  8
BG_OUTLINE
 66
1
 70
1
 40
0.000000
 41
0.000000
 39
0.000000
  0
VERTEX
  8
BG_OUTLINE
 10
49.989500
 20
-16.576100
 40
0.000000
 41
0.000000
 42
0.000000
  0
VERTEX
  8
BG_OUTLINE
 10
53.915500
 20
-23.376100
 40
0.000000
 41
0.000000
 42
0.000000
  0
VERTEX
  8
BG_OUTLINE
 10
54.477100
 20
-22.403300
 40
0.000000
 41
0.000000
 42
-1.000000
  0
VERTEX
  8
BG_OUTLINE
 10
57.248400
 20
-24.003300
 40
0.000000
 41
0.000000
 42
0.000000
  0
VERTEX
  8
BG_OUTLINE
 10
56.686800
 20
-24.976100
 40
0.000000
 41
0.000000
 42
0.000000
  0
VERTEX
  8
BG_OUTLINE
 10
64.538700
 20
-24.976100
 40
0.000000
 41
0.000000
 42
0.000000
  0
VERTEX
  8
BG_OUTLINE
 10
63.977100
 20
-24.003300
 40
0.000000
 41
0.000000
 42
-1.000000
  0
VERTEX
  8
BG_OUTLINE
 10
66.748400
 20
-22.403300
 40
0.000000
 41
0.000000
 42
0.000000
  0
VERTEX
  8
BG_OUTLINE
 10
67.310000
 20
-23.376100
 40
0.000000
 41
0.000000
 42
0.000000
  0
VERTEX
  8
BG_OUTLINE
 10
71.236000
 20
-16.576100
 40
0.000000
 41
0.000000
 42
0.000000
  0
VERTEX
  8
BG_OUTLINE
 10
70.112700
 20
-16.576100
 40
0.000000
 41
0.000000
 42
-0.999983
  0
VERTEX
  8
BG_OUTLINE
 10
70.112700
 20
-13.376100
 40
0.000000
 41
0.000000
 42
0.000000
  0
VERTEX
  8
BG_OUTLINE
 10
71.236000
 20
-13.376100
 40
0.000000
 41
0.000000
 42
0.000000
  0
VERTEX
  8
BG_OUTLINE
 10
67.310000
 20
-6.576100
 40
0.000000
 41
0.000000
 42
0.000000
  0
VERTEX
  8
BG_OUTLINE
 10
66.748400
 20
-7.548900
 40
0.000000
 41
0.000000
 42
-1.000000
  0
VERTEX
  8
BG_OUTLINE
 10
63.977100
 20
-5.948900
 40
0.000000
 41
0.000000
 42
0.000000
  0
VERTEX
  8
BG_OUTLINE
 10
64.538700
 20
-4.976100
 40
0.000000
 41
0.000000
 42
0.000000
  0
VERTEX
  8
BG_OUTLINE
 10
56.686800
 20
-4.976100
 40
0.000000
 41
0.000000
 42
0.000000
  0
VERTEX
  8
BG_OUTLINE
 10
57.248400
 20
-5.948900
 40
0.000000
 41
0.000000
 42
-1.000000
  0
VERTEX
  8
BG_OUTLINE
 10
54.477100
 20
-7.548900
 40
0.000000
 41
0.000000
 42
0.000000
  0
VERTEX
  8
BG_OUTLINE
 10
53.915500
 20
-6.576100
 40
0.000000
 41
0.000000
 42
0.000000
  0
VERTEX
  8
BG_OUTLINE
 10
49.989500
 20
-13.376100
 40
0.000000
 41
0.000000
 42
0.000000
  0
VERTEX
  8
BG_OUTLINE
 10
51.112700
 20
-13.376100
 40
0.000000
 41
0.000000
 42
-1.000017
  0
VERTEX
  8
BG_OUTLINE
 10
51.112700
 20
-16.576100
 40
0.000000
 41
0.000000
 42
0.000000
  0
SEQEND
  0
POLYLINE
  8
BG_OUTLINE
 66
1
 70
1
 40
0.000000
 41
0.000000
 39
0.000000
  0
VERTEX
  8
BG_OUTLINE
 10
24.989500
 20
-16.576100
 40
0.000000
 41
0.000000
 42
0.000000
  0
VERTEX
  8
BG_OUTLINE
 10
28.915500
 20
-23.376100
 40
0.000000
 41
0.000000
 42
0.000000
  0
VERTEX
  8
BG_OUTLINE
 10
29.477100
 20
-22.403300
 40
0.000000
 41
0.000000
 42
-1.000000
  0
VERTEX
  8
BG_OUTLINE
 10
32.248400
 20
-24.003300
 40
0.000000
 41
0.000000
 42
0.000000
  0
VERTEX
  8
BG_OUTLINE
 10
31.686800
 20
-24.976100
 40
0.000000
 41
0.000000
 42
0.000000
  0
VERTEX
  8
BG_OUTLINE
 10
39.538700
 20
-24.976100
 40
0.000000
 41
0.000000
 42
0.000000
  0
VERTEX
  8
BG_OUTLINE
 10
38.977100
 20
-24.003300
 40
0.000000
 41
0.000000
 42
-1.000000
  0
VERTEX
  8
BG_OUTLINE
 10
41.748400
 20
-22.403300
 40
0.000000
 41
0.000000
 42
0.000000
  0
VERTEX
  8
BG_OUTLINE
 10
42.310000
 20
-23.376100
 40
0.000000
 41
0.000000
 42
0.000000
  0
VERTEX
  8
BG_OUTLINE
 10
46.236000
 20
-16.576100
 40
0.000000
 41
0.000000
 42
0.000000
  0
VERTEX
  8
BG_OUTLINE
 10
45.112700
 20
-16.576100
 40
0.000000
 41
0.000000
 42
-0.999983
  0
VERTEX
  8
BG_OUTLINE
 10
45.112700
 20
-13.376100
 40
0.000000
 41
0.000000
 42
0.000000
  0
VERTEX
  8
BG_OUTLINE
 10
46.236000
 20
-13.376100
 40
0.000000
 41
0.000000
 42
0.000000
  0
VERTEX
  8
BG_OUTLINE
 10
42.310000
 20
-6.576100
 40
0.000000
 41
0.000000
 42
0.000000
  0
VERTEX
  8
BG_OUTLINE
 10
41.748400
 20
-7.548900
 40
0.000000
 41
0.000000
 42
-1.000000
  0
VERTEX
  8
BG_OUTLINE
 10
38.977100
 20
-5.948900
 40
0.000000
 41
0.000000
 42
0.000000
  0
VERTEX
  8
BG_OUTLINE
 10
39.538700
 20
-4.976100
 40
0.000000
 41
0.000000
 42
0.000000
  0
VERTEX
  8
BG_OUTLINE
 10
31.686800
 20
-4.976100
 40
0.000000
 41
0.000000
 42
0.000000
  0
VERTEX
  8
BG_OUTLINE
 10
32.248400
 20
-5.948900
 40
0.000000
 41
0.000000
 42
-1.000000
  0
VERTEX
  8
BG_OUTLINE
 10
29.477100
 20
-7.548900
 40
0.000000
 41
0.000000
 42
0.000000
  0
VERTEX
  8
BG_OUTLINE
 10
28.915500
 20
-6.576100
 40
0.000000
 41
0.000000
 42
0.000000
  0
VERTEX
  8
BG_OUTLINE
 10
24.989500
 20
-13.376100
 40
0.000000
 41
0.000000
 42
0.000000
  0
VERTEX
  8
BG_OUTLINE
 10
26.112700
 20
-13.376100
 40
0.000000
 41
0.000000
 42
-1.000017
  0
VERTEX
  8
BG_OUTLINE
 10
26.112700
 20
-16.576100
 40
0.000000
 41
0.000000
 42
0.000000
  0
SEQEND
  0
POLYLINE
  8
BG_OUTLINE
 66
1
 70
1
 40
0.000000
 41
0.000000
 39
0.000000
  0
VERTEX
  8
BG_OUTLINE
 10
-0.010500
 20
-16.576100
 40
0.000000
 41
0.000000
 42
0.000000
  0
VERTEX
  8
BG_OUTLINE
 10
3.915500
 20
-23.376100
 40
0.000000
 41
0.000000
 42
0.000000
  0
VERTEX
  8
BG_OUTLINE
 10
4.477100
 20
-22.403300
 40
0.000000
 41
0.000000
 42
-1.000000
  0
VERTEX
  8
BG_OUTLINE
 10
7.248400
 20
-24.003300
 40
0.000000
 41
0.000000
 42
0.000000
  0
VERTEX
  8
BG_OUTLINE
 10
6.686800
 20
-24.976100
 40
0.000000
 41
0.000000
 42
0.000000
  0
VERTEX
  8
BG_OUTLINE
 10
14.538700
 20
-24.976100
 40
0.000000
 41
0.000000
 42
0.000000
  0
VERTEX
  8
BG_OUTLINE
 10
13.977100
 20
-24.003300
 40
0.000000
 41
0.000000
 42
-1.000000
  0
VERTEX
  8
BG_OUTLINE
 10
16.748400
 20
-22.403300
 40
0.000000
 41
0.000000
 42
0.000000
  0
VERTEX
  8
BG_OUTLINE
 10
17.310000
 20
-23.376100
 40
0.000000
 41
0.000000
 42
0.000000
  0
VERTEX
  8
BG_OUTLINE
 10
21.236000
 20
-16.576100
 40
0.000000
 41
0.000000
 42
0.000000
  0
VERTEX
  8
BG_OUTLINE
 10
20.112700
 20
-16.576100
 40
0.000000
 41
0.000000
 42
-0.999983
  0
VERTEX
  8
BG_OUTLINE
 10
20.112700
 20
-13.376100
 40
0.000000
 41
0.000000
 42
0.000000
  0
VERTEX
  8
BG_OUTLINE
 10
21.236000
 20
-13.376100
 40
0.000000
 41
0.000000
 42
0.000000
  0
VERTEX
  8
BG_OUTLINE
 10
17.310000
 20
-6.576100
 40
0.000000
 41
0.000000
 42
0.000000
  0
VERTEX
  8
BG_OUTLINE
 10
16.748400
 20
-7.548900
 40
0.000000
 41
0.000000
 42
-1.000000
  0
VERTEX
  8
BG_OUTLINE
 10
13.977100
 20
-5.948900
 40
0.000000
 41
0.000000
 42
0.000000
  0
VERTEX
  8
BG_OUTLINE
 10
14.538700
 20
-4.976100
 40
0.000000
 41
0.000000
 42
0.000000
  0
VERTEX
  8
BG_OUTLINE
 10
6.686800
 20
-4.976100
 40
0.000000
 41
0.000000
 42
0.000000
  0
VERTEX
  8
BG_OUTLINE
 10
7.248400
 20
-5.948900
 40
0.000000
 41
0.000000
 42
-1.000000
  0
VERTEX
  8
BG_OUTLINE
 10
4.477100
 20
-7.548900
 40
0.000000
 41
0.000000
 42
0.000000
  0
VERTEX
  8
BG_OUTLINE
 10
3.915500
 20
-6.576100
 40
0.000000
 41
0.000000
 42
0.000000
  0
VERTEX
  8
BG_OUTLINE
 10
-0.010500
 20
-13.376100
 40
0.000000
 41
0.000000
 42
0.000000
  0
VERTEX
  8
BG_OUTLINE
 10
1.112700
 20
-13.376100
 40
0.000000
 41
0.000000
 42
-1.000017
  0
VERTEX
  8
BG_OUTLINE
 10
1.112700
 20
-16.576100
 40
0.000000
 41
0.000000
 42
0.000000
  0
SEQEND
  0
POLYLINE
  8
BG_OUTLINE
 66
1
 70
1
 40
0.000000
 41
0.000000
 39
0.000000
  0
VERTEX
  8
BG_OUTLINE
 10
99.989500
 20
8.423900
 40
0.000000
 41
0.000000
 42
0.000000
  0
VERTEX
  8
BG_OUTLINE
 10
103.915500
 20
1.623900
 40
0.000000
 41
0.000000
 42
0.000000
  0
VERTEX
  8
BG_OUTLINE
 10
104.477100
 20
2.596700
 40
0.000000
 41
0.000000
 42
-1.000000
  0
VERTEX
  8
BG_OUTLINE
 10
107.248400
 20
0.996700
 40
0.000000
 41
0.000000
 42
0.000000
  0
VERTEX
  8
BG_OUTLINE
 10
106.686800
 20
0.023900
 40
0.000000
 41
0.000000
 42
0.000000
  0
VERTEX
  8
BG_OUTLINE
 10
114.538700
 20
0.023900
 40
0.000000
 41
0.000000
 42
0.000000
  0
VERTEX
  8
BG_OUTLINE
 10
113.977100
 20
0.996700
 40
0.000000
 41
0.000000
 42
-1.000000
  0
VERTEX
  8
BG_OUTLINE
 10
116.748400
 20
2.596700
 40
0.000000
 41
0.000000
 42
0.000000
  0
VERTEX
  8
BG_OUTLINE
 10
117.310000
 20
1.623900
 40
0.000000
 41
0.000000
 42
0.000000
  0
VERTEX
  8
BG_OUTLINE
 10
121.236000
 20
8.423900
 40
0.000000
 41
0.000000
 42
0.000000
  0
VERTEX
  8
BG_OUTLINE
 10
120.112700
 20
8.423900
 40
0.000000
 41
0.000000
 42
-0.999983
  0
VERTEX
  8
BG_OUTLINE
 10
120.112700
 20
11.623900
 40
0.000000
 41
0.000000
 42
0.000000
  0
VERTEX
  8
BG_OUTLINE
 10
121.236000
 20
11.623900
 40
0.000000
 41
0.000000
 42
0.000000
  0
VERTEX
  8
BG_OUTLINE
 10
117.310000
 20
18.423900
 40
0.000000
 41
0.000000
 42
0.000000
  0
VERTEX
  8
BG_OUTLINE
 10
116.748400
 20
17.451100
 40
0.000000
 41
0.000000
 42
-1.000000
  0
VERTEX
  8
BG_OUTLINE
 10
113.977100
 20
19.051100
 40
0.000000
 41
0.000000
 42
0.000000
  0
VERTEX
  8
BG_OUTLINE
 10
114.538700
 20
20.023900
 40
0.000000
 41
0.000000
 42
0.000000
  0
VERTEX
  8
BG_OUTLINE
 10
106.686800
 20
20.023900
 40
0.000000
 41
0.000000
 42
0.000000
  0
VERTEX
  8
BG_OUTLINE
 10
107.248400
 20
19.051100
 40
0.000000
 41
0.000000
 42
-1.000000
  0
VERTEX
  8
BG_OUTLINE
 10
104.477100
 20
17.451100
 40
0.000000
 41
0.000000
 42
0.000000
  0
VERTEX
  8
BG_OUTLINE
 10
103.915500
 20
18.423900
 40
0.000000
 41
0.000000
 42
0.000000
  0
VERTEX
  8
BG_OUTLINE
 10
99.989500
 20
11.623900
 40
0.000000
 41
0.000000
 42
0.000000
  0
VERTEX
  8
BG_OUTLINE
 10
101.112700
 20
11.623900
 40
0.000000
 41
0.000000
 42
-1.000017
  0
VERTEX
  8
BG_OUTLINE
 10
101.112700
 20
8.423900
 40
0.000000
 41
0.000000
 42
0.000000
  0
SEQEND
  0
POLYLINE
  8
BG_OUTLINE
 66
1
 70
1
 40
0.000000
 41
0.000000
 39
0.000000
  0
VERTEX
  8
BG_OUTLINE
 10
74.989500
 20
8.423900
 40
0.000000
 41
0.000000
 42
0.000000
  0
VERTEX
  8
BG_OUTLINE
 10
78.915500
 20
1.623900
 40
0.000000
 41
0.000000
 42
0.000000
  0
VERTEX
  8
BG_OUTLINE
 10
79.477100
 20
2.596700
 40
0.000000
 41
0.000000
 42
-1.000000
  0
VERTEX
  8
BG_OUTLINE
 10
82.248400
 20
0.996700
 40
0.000000
 41
0.000000
 42
0.000000
  0
VERTEX
  8
BG_OUTLINE
 10
81.686800
 20
0.023900
 40
0.000000
 41
0.000000
 42
0.000000
  0
VERTEX
  8
BG_OUTLINE
 10
89.538700
 20
0.023900
 40
0.000000
 41
0.000000
 42
0.000000
  0
VERTEX
  8
BG_OUTLINE
 10
88.977100
 20
0.996700
 40
0.000000
 41
0.000000
 42
-1.000000
  0
VERTEX
  8
BG_OUTLINE
 10
91.748400
 20
2.596700
 40
0.000000
 41
0.000000
 42
0.000000
  0
VERTEX
  8
BG_OUTLINE
 10
92.310000
 20
1.623900
 40
0.000000
 41
0.000000
 42
0.000000
  0
VERTEX
  8
BG_OUTLINE
 10
96.236000
 20
8.423900
 40
0.000000
 41
0.000000
 42
0.000000
  0
VERTEX
  8
BG_OUTLINE
 10
95.112700
 20
8.423900
 40
0.000000
 41
0.000000
 42
-0.999983
  0
VERTEX
  8
BG_OUTLINE
 10
95.112700
 20
11.623900
 40
0.000000
 41
0.000000
 42
0.000000
  0
VERTEX
  8
BG_OUTLINE
 10
96.236000
 20
11.623900
 40
0.000000
 41
0.000000
 42
0.000000
  0
VERTEX
  8
BG_OUTLINE
 10
92.310000
 20
18.423900
 40
0.000000
 41
0.000000
 42
0.000000
  0
VERTEX
  8
BG_OUTLINE
 10
91.748400
 20
17.451100
 40
0.000000
 41
0.000000
 42
-1.000000
  0
VERTEX
  8
BG_OUTLINE
 10
88.977100
 20
19.051100
 40
0.000000
 41
0.000000
 42
0.000000
  0
VERTEX
  8
BG_OUTLINE
 10
89.538700
 20
20.023900
 40
0.000000
 41
0.000000
 42
0.000000
  0
VERTEX
  8
BG_OUTLINE
 10
81.686800
 20
20.023900
 40
0.000000
 41
0.000000
 42
0.000000
  0
VERTEX
  8
BG_OUTLINE
 10
82.248400
 20
19.051100
 40
0.000000
 41
0.000000
 42
-1.000000
  0
VERTEX
  8
BG_OUTLINE
 10
79.477100
 20
17.451100
 40
0.000000
 41
0.000000
 42
0.000000
  0
VERTEX
  8
BG_OUTLINE
 10
78.915500
 20
18.423900
 40
0.000000
 41
0.000000
 42
0.000000
  0
VERTEX
  8
BG_OUTLINE
 10
74.989500
 20
11.623900
 40
0.000000
 41
0.000000
 42
0.000000
  0
VERTEX
  8
BG_OUTLINE
 10
76.112700
 20
11.623900
 40
0.000000
 41
0.000000
 42
-1.000017
  0
VERTEX
  8
BG_OUTLINE
 10
76.112700
 20
8.423900
 40
0.000000
 41
0.000000
 42
0.000000
  0
SEQEND
  0
POLYLINE
  8
BG_OUTLINE
 66
1
 70
1
 40
0.000000
 41
0.000000
 39
0.000000
  0
VERTEX
  8
BG_OUTLINE
 10
49.989500
 20
8.423900
 40
0.000000
 41
0.000000
 42
0.000000
  0
VERTEX
  8
BG_OUTLINE
 10
53.915500
 20
1.623900
 40
0.000000
 41
0.000000
 42
0.000000
  0
VERTEX
  8
BG_OUTLINE
 10
54.477100
 20
2.596700
 40
0.000000
 41
0.000000
 42
-1.000000
  0
VERTEX
  8
BG_OUTLINE
 10
57.248400
 20
0.996700
 40
0.000000
 41
0.000000
 42
0.000000
  0
VERTEX
  8
BG_OUTLINE
 10
56.686800
 20
0.023900
 40
0.000000
 41
0.000000
 42
0.000000
  0
VERTEX
  8
BG_OUTLINE
 10
64.538700
 20
0.023900
 40
0.000000
 41
0.000000
 42
0.000000
  0
VERTEX
  8
BG_OUTLINE
 10
63.977100
 20
0.996700
 40
0.000000
 41
0.000000
 42
-1.000000
  0
VERTEX
  8
BG_OUTLINE
 10
66.748400
 20
2.596700
 40
0.000000
 41
0.000000
 42
0.000000
  0
VERTEX
  8
BG_OUTLINE
 10
67.310000
 20
1.623900
 40
0.000000
 41
0.000000
 42
0.000000
  0
VERTEX
  8
BG_OUTLINE
 10
71.236000
 20
8.423900
 40
0.000000
 41
0.000000
 42
0.000000
  0
VERTEX
  8
BG_OUTLINE
 10
70.112700
 20
8.423900
 40
0.000000
 41
0.000000
 42
-0.999983
  0
VERTEX
  8
BG_OUTLINE
 10
70.112700
 20
11.623900
 40
0.000000
 41
0.000000
 42
0.000000
  0
VERTEX
  8
BG_OUTLINE
 10
71.236000
 20
11.623900
 40
0.000000
 41
0.000000
 42
0.000000
  0
VERTEX
  8
BG_OUTLINE
 10
67.310000
 20
18.423900
 40
0.000000
 41
0.000000
 42
0.000000
  0
VERTEX
  8
BG_OUTLINE
 10
66.748400
 20
17.451100
 40
0.000000
 41
0.000000
 42
-1.000000
  0
VERTEX
  8
BG_OUTLINE
 10
63.977100
 20
19.051100
 40
0.000000
 41
0.000000
 42
0.000000
  0
VERTEX
  8
BG_OUTLINE
 10
64.538700
 20
20.023900
 40
0.000000
 41
0.000000
 42
0.000000
  0
VERTEX
  8
BG_OUTLINE
 10
56.686800
 20
20.023900
 40
0.000000
 41
0.000000
 42
0.000000
  0
VERTEX
  8
BG_OUTLINE
 10
57.248400
 20
19.051100
 40
0.000000
 41
0.000000
 42
-1.000000
  0
VERTEX
  8
BG_OUTLINE
 10
54.477100
 20
17.451100
 40
0.000000
 41
0.000000
 42
0.000000
  0
VERTEX
  8
BG_OUTLINE
 10
53.915500
 20
18.423900
 40
0.000000
 41
0.000000
 42
0.000000
  0
VERTEX
  8
BG_OUTLINE
 10
49.989500
 20
11.623900
 40
0.000000
 41
0.000000
 42
0.000000
  0
VERTEX
  8
BG_OUTLINE
 10
51.112700
 20
11.623900
 40
0.000000
 41
0.000000
 42
-1.000017
  0
VERTEX
  8
BG_OUTLINE
 10
51.112700
 20
8.423900
 40
0.000000
 41
0.000000
 42
0.000000
  0
SEQEND
  0
POLYLINE
  8
BG_OUTLINE
 66
1
 70
1
 40
0.000000
 41
0.000000
 39
0.000000
  0
VERTEX
  8
BG_OUTLINE
 10
24.989500
 20
8.423900
 40
0.000000
 41
0.000000
 42
0.000000
  0
VERTEX
  8
BG_OUTLINE
 10
28.915500
 20
1.623900
 40
0.000000
 41
0.000000
 42
0.000000
  0
VERTEX
  8
BG_OUTLINE
 10
29.477100
 20
2.596700
 40
0.000000
 41
0.000000
 42
-1.000000
  0
VERTEX
  8
BG_OUTLINE
 10
32.248400
 20
0.996700
 40
0.000000
 41
0.000000
 42
0.000000
  0
VERTEX
  8
BG_OUTLINE
 10
31.686800
 20
0.023900
 40
0.000000
 41
0.000000
 42
0.000000
  0
VERTEX
  8
BG_OUTLINE
 10
39.538700
 20
0.023900
 40
0.000000
 41
0.000000
 42
0.000000
  0
VERTEX
  8
BG_OUTLINE
 10
38.977100
 20
0.996700
 40
0.000000
 41
0.000000
 42
-1.000000
  0
VERTEX
  8
BG_OUTLINE
 10
41.748400
 20
2.596700
 40
0.000000
 41
0.000000
 42
0.000000
  0
VERTEX
  8
BG_OUTLINE
 10
42.310000
 20
1.623900
 40
0.000000
 41
0.000000
 42
0.000000
  0
VERTEX
  8
BG_OUTLINE
 10
46.236000
 20
8.423900
 40
0.000000
 41
0.000000
 42
0.000000
  0
VERTEX
  8
BG_OUTLINE
 10
45.112700
 20
8.423900
 40
0.000000
 41
0.000000
 42
-0.999983
  0
VERTEX
  8
BG_OUTLINE
 10
45.112700
 20
11.623900
 40
0.000000
 41
0.000000
 42
0.000000
  0
VERTEX
  8
BG_OUTLINE
 10
46.236000
 20
11.623900
 40
0.000000
 41
0.000000
 42
0.000000
  0
VERTEX
  8
BG_OUTLINE
 10
42.310000
 20
18.423900
 40
0.000000
 41
0.000000
 42
0.000000
  0
VERTEX
  8
BG_OUTLINE
 10
41.748400
 20
17.451100
 40
0.000000
 41
0.000000
 42
-1.000000
  0
VERTEX
  8
BG_OUTLINE
 10
38.977100
 20
19.051100
 40
0.000000
 41
0.000000
 42
0.000000
  0
VERTEX
  8
BG_OUTLINE
 10
39.538700
 20
20.023900
 40
0.000000
 41
0.000000
 42
0.000000
  0
VERTEX
  8
BG_OUTLINE
 10
31.686800
 20
20.023900
 40
0.000000
 41
0.000000
 42
0.000000
  0
VERTEX
  8
BG_OUTLINE
 10
32.248400
 20
19.051100
 40
0.000000
 41
0.000000
 42
-1.000000
  0
VERTEX
  8
BG_OUTLINE
 10
29.477100
 20
17.451100
 40
0.000000
 41
0.000000
 42
0.000000
  0
VERTEX
  8
BG_OUTLINE
 10
28.915500
 20
18.423900
 40
0.000000
 41
0.000000
 42
0.000000
  0
VERTEX
  8
BG_OUTLINE
 10
24.989500
 20
11.623900
 40
0.000000
 41
0.000000
 42
0.000000
  0
VERTEX
  8
BG_OUTLINE
 10
26.112700
 20
11.623900
 40
0.000000
 41
0.000000
 42
-1.000017
  0
VERTEX
  8
BG_OUTLINE
 10
26.112700
 20
8.423900
 40
0.000000
 41
0.000000
 42
0.000000
  0
SEQEND
  0
POLYLINE
  8
BG_OUTLINE
 66
1
 70
1
 40
0.000000
 41
0.000000
 39
0.000000
  0
VERTEX
  8
BG_OUTLINE
 10
-0.010500
 20
8.423900
 40
0.000000
 41
0.000000
 42
0.000000
  0
VERTEX
  8
BG_OUTLINE
 10
3.915500
 20
1.623900
 40
0.000000
 41
0.000000
 42
0.000000
  0
VERTEX
  8
BG_OUTLINE
 10
4.477100
 20
2.596700
 40
0.000000
 41
0.000000
 42
-1.000000
  0
VERTEX
  8
BG_OUTLINE
 10
7.248400
 20
0.996700
 40
0.000000
 41
0.000000
 42
0.000000
  0
VERTEX
  8
BG_OUTLINE
 10
6.686800
 20
0.023900
 40
0.000000
 41
0.000000
 42
0.000000
  0
VERTEX
  8
BG_OUTLINE
 10
14.538700
 20
0.023900
 40
0.000000
 41
0.000000
 42
0.000000
  0
VERTEX
  8
BG_OUTLINE
 10
13.977100
 20
0.996700
 40
0.000000
 41
0.000000
 42
-1.000000
  0
VERTEX
  8
BG_OUTLINE
 10
16.748400
 20
2.596700
 40
0.000000
 41
0.000000
 42
0.000000
  0
VERTEX
  8
BG_OUTLINE
 10
17.310000
 20
1.623900
 40
0.000000
 41
0.000000
 42
0.000000
  0
VERTEX
  8
BG_OUTLINE
 10
21.236000
 20
8.423900
 40
0.000000
 41
0.000000
 42
0.000000
  0
VERTEX
  8
BG_OUTLINE
 10
20.112700
 20
8.423900
 40
0.000000
 41
0.000000
 42
-0.999983
  0
VERTEX
  8
BG_OUTLINE
 10
20.112700
 20
11.623900
 40
0.000000
 41
0.000000
 42
0.000000
  0
VERTEX
  8
BG_OUTLINE
 10
21.236000
 20
11.623900
 40
0.000000
 41
0.000000
 42
0.000000
  0
VERTEX
  8
BG_OUTLINE
 10
17.310000
 20
18.423900
 40
0.000000
 41
0.000000
 42
0.000000
  0
VERTEX
  8
BG_OUTLINE
 10
16.748400
 20
17.451100
 40
0.000000
 41
0.000000
 42
-1.000000
  0
VERTEX
  8
BG_OUTLINE
 10
13.977100
 20
19.051100
 40
0.000000
 41
0.000000
 42
0.000000
  0
VERTEX
  8
BG_OUTLINE
 10
14.538700
 20
20.023900
 40
0.000000
 41
0.000000
 42
0.000000
  0
VERTEX
  8
BG_OUTLINE
 10
6.686800
 20
20.023900
 40
0.000000
 41
0.000000
 42
0.000000
  0
VERTEX
  8
BG_OUTLINE
 10
7.248400
 20
19.051100
 40
0.000000
 41
0.000000
 42
-1.000000
  0
VERTEX
  8
BG_OUTLINE
 10
4.477100
 20
17.451100
 40
0.000000
 41
0.000000
 42
0.000000
  0
VERTEX
  8
BG_OUTLINE
 10
3.915500
 20
18.423900
 40
0.000000
 41
0.000000
 42
0.000000
  0
VERTEX
  8
BG_OUTLINE
 10
-0.010500
 20
11.623900
 40
0.000000
 41
0.000000
 42
0.000000
  0
VERTEX
  8
BG_OUTLINE
 10
1.112700
 20
11.623900
 40
0.000000
 41
0.000000
 42
-1.000017
  0
VERTEX
  8
BG_OUTLINE
 10
1.112700
 20
8.423900
 40
0.000000
 41
0.000000
 42
0.000000
  0
SEQEND
  0
TEXT
  8
BG_SILKSCREEN_TOP
 10
51.100000
 20
-28.500000
 11
0.000000
 21
0.000000
 40
2.000000
 41
0.800000
 50
0.000000
  7
STANDARD
 71
0
 72
0
  1
2020.04.10
 73
0
  0
TEXT
  8
MA_NCLEGEND-1-2
 10
38.350000
 20
-51.700000
 11
38.850000
 21
-51.700000
 40
1.500000
 41
0.733333
 50
0.000000
  7
STANDARD
 71
0
 72
1
  1
4
 73
0
  0
TEXT
  8
MA_NCLEGEND-1-2
 10
29.450000
 20
-51.700000
 11
29.950000
 21
-51.700000
 40
1.500000
 41
0.733333
 50
0.000000
  7
STANDARD
 71
0
 72
1
  1
NON-PLATED
 73
0
  0
TEXT
  8
MA_NCLEGEND-1-2
 10
15.600000
 20
-51.700000
 11
16.100000
 21
-51.700000
 40
1.500000
 41
0.733333
 50
0.000000
  7
STANDARD
 71
0
 72
1
  1
3.0
 73
0
  0
TEXT
  8
MA_NCLEGEND-1-2
 10
38.350000
 20
-47.950000
 11
38.850000
 21
-47.950000
 40
1.500000
 41
0.733333
 50
0.000000
  7
STANDARD
 71
0
 72
1
  1
QTY
 73
0
  0
TEXT
  8
MA_NCLEGEND-1-2
 10
29.450000
 20
-47.950000
 11
29.950000
 21
-47.950000
 40
1.500000
 41
0.733333
 50
0.000000
  7
STANDARD
 71
0
 72
1
  1
PLATED
 73
0
  0
TEXT
  8
MA_NCLEGEND-1-2
 10
15.600000
 20
-47.950000
 11
16.100000
 21
-47.950000
 40
1.500000
 41
0.733333
 50
0.000000
  7
STANDARD
 71
0
 72
1
  1
SIZE
 73
0
  0
TEXT
  8
MA_NCLEGEND-1-2
 10
3.400000
 20
-47.950000
 11
3.900000
 21
-47.950000
 40
1.500000
 41
0.733333
 50
0.000000
  7
STANDARD
 71
0
 72
1
  1
FIGURE
 73
0
  0
TEXT
  8
MA_NCLEGEND-1-2
 10
20.600000
 20
-44.950000
 11
21.100000
 21
-44.950000
 40
1.500000
 41
0.733333
 50
0.000000
  7
STANDARD
 71
0
 72
1
  1
ALL UNITS ARE IN MILLIMETERS
 73
0
  0
TEXT
  8
MA_NCLEGEND-1-2
 10
20.600000
 20
-38.450000
 11
21.100000
 21
-38.450000
 40
1.500000
 41
0.733333
 50
0.000000
  7
STANDARD
 71
0
 72
1
  1
DRILL CHART: TOP to BOTTOM
 73
0
  0
TEXT
  8
BG_SILKSCREEN_TOP
 10
50.984000
 20
21.595000
 11
0.000000
 21
0.000000
 40
2.000000
 41
0.800000
 50
0.000000
  7
STANDARD
 71
0
 72
0
  1
STAR PCB 151B
 73
0
  0
TEXT
  8
BG_OUTLINE
 10
-5.612800
 20
-25.223900
 11
0.000000
 21
0.000000
 40
0.500000
 41
0.700000
 50
0.000000
  7
STANDARD
 71
0
 72
0
  1
V-CUT
 73
0
  0
TEXT
  8
BG_OUTLINE
 10
-5.000000
 20
-5.200000
 11
0.000000
 21
0.000000
 40
0.500000
 41
0.700000
 50
0.000000
  7
STANDARD
 71
0
 72
0
  1
V-CUT
 73
0
  0
TEXT
  8
BG_OUTLINE
 10
-5.000000
 20
19.800000
 11
0.000000
 21
0.000000
 40
0.500000
 41
0.700000
 50
0.000000
  7
STANDARD
 71
0
 72
0
  1
V-CUT
 73
0
  0
TEXT
  8
BG_OUTLINE
 10
-5.000000
 20
-0.200000
 11
0.000000
 21
0.000000
 40
0.500000
 41
0.700000
 50
0.000000
  7
STANDARD
 71
0
 72
0
  1
V-CUT
 73
0
  0
TEXT
  8
BG_SILKSCREEN_TOP
 10
6.684000
 20
13.177000
 11
0.000000
 21
0.000000
 40
0.500000
 41
1.200000
 50
0.000000
  7
STANDARD
 71
0
 72
0
  1
STAR_PCB_151B
 73
0
  0
TEXT
  8
BG_SILKSCREEN_TOP
 10
14.350000
 20
11.029000
 11
0.000000
 21
0.000000
 40
0.500000
 41
1.200000
 50
0.000000
  7
STANDARD
 71
0
 72
0
  1
Tj
 73
0
  0
INSERT
  8
MA_NCLEGEND-1-2
  2
FIGURE_CIRCLE
 10
3.900000
 20
-50.950000
 41
3.000000
 42
3.000000
 50
0.000000
  0
TEXT
  8
MA_NCLEGEND-1-2
 10
2.900000
 20
-51.700000
 11
3.900000
 21
-50.950000
 40
1.500000
 41
1.000000
 50
0.000000
  7
STANDARD
 71
0
 72
1
  1
A
 73
2
  0
ENDSEC
  0
EOF
