  0
SECTION
  2
HEADER
  9
$ACADVER
  1
AC1009
  9
$INSBASE
 10
0.000000
 20
0.000000
  9
$LIMMIN
 10
-80.000000
 20
-70.000000
  9
$LIMMAX
 10
620.000000
 20
280.000000
  9
$EXTMIN
 10
-80.000000
 20
-70.000000
  9
$EXTMAX
 10
620.000000
 20
280.000000
  9
$ATTMODE
 70
0
  9
$LUNITS
 70
2
  9
$LUPREC
 70
4
  9
$THICKNESS
 40
0.283200
  0
ENDSEC
  0
SECTION
  2
TABLES
  0
TABLE
  2
LTYPE
 70
1
  0
LTYPE
  3
Solid Line
  2
CONTINUOUS
 70
0
 72
65
 73
0
 40
0.000000
  0
ENDTAB
  0
TABLE
  2
LAYER
 70
13
  0
LAYER
  2
BG_SOLDERMASK_TOP
 70
0
 62
3
  6
CONTINUOUS
  0
LAYER
  2
BG_SILKSCREEN_TOP
 70
0
 62
1
  6
CONTINUOUS
  0
LAYER
  2
BG_OUTLINE
 70
0
 62
7
  6
CONTINUOUS
  0
LAYER
  2
ET_TOP
 70
0
 62
140
  6
CONTINUOUS
  0
LAYER
  2
MA_NCLEGEND-1-2
 70
0
 62
9
  6
CONTINUOUS
  0
LAYER
  2
PG_PASTEMASK_TOP
 70
0
 62
150
  6
CONTINUOUS
  0
LAYER
  2
PG_SOLDERMASK_TOP
 70
0
 62
3
  6
CONTINUOUS
  0
LAYER
  2
PG_SILKSCREEN_TOP
 70
0
 62
1
  6
CONTINUOUS
  0
LAYER
  2
PIN_TOP
 70
0
 62
140
  6
CONTINUOUS
  0
LAYER
  2
PIN_SOLDERMASK_TOP
 70
0
 62
3
  6
CONTINUOUS
  0
LAYER
  2
RD_SILKSCREEN_TOP
 70
0
 62
1
  6
CONTINUOUS
  0
LAYER
  2
VC_TOP
 70
0
 62
140
  6
CONTINUOUS
  0
LAYER
  2
PLAN_TOP
 70
0
 62
70
  6
CONTINUOUS
  0
ENDTAB
  0
TABLE
  2
STYLE
 70
1
  0
STYLE
  2
STANDARD
 70
0
 40
0.000000
 41
1.000000
 50
0.000000
 71
0
 42
0.200000
  3
txt
  0
ENDTAB
  0
ENDSEC
  0
SECTION
  2
BLOCKS
  0
BLOCK
  8
0
  2
FIGURE_CIRCLE
 70
0
 10
0.000000
 20
0.000000
  0
CIRCLE
  8
0
 10
0.000000
 20
0.000000
 40
0.500000
  0
ENDBLK
  0
BLOCK
  8
0
  2
FIGURE_SQUARE
 70
0
 10
0.000000
 20
0.000000
  0
POLYLINE
  8
0
 66
1
 70
1
 40
0.000000
 41
0.000000
 39
0.000000
  0
VERTEX
  8
0
 10
-0.500000
 20
-0.500000
 40
0.000000
 41
0.000000
 42
0.000000
  0
VERTEX
  8
0
 10
-0.500000
 20
0.500000
 40
0.000000
 41
0.000000
 42
0.000000
  0
VERTEX
  8
0
 10
0.500000
 20
0.500000
 40
0.000000
 41
0.000000
 42
0.000000
  0
VERTEX
  8
0
 10
0.500000
 20
-0.500000
 40
0.000000
 41
0.000000
 42
0.000000
  0
SEQEND
  0
ENDBLK
  0
BLOCK
  8
0
  2
FIGURE_HEX
 70
0
 10
0.000000
 20
0.000000
  0
POLYLINE
  8
0
 66
1
 70
1
 40
0.000000
 41
0.000000
 39
0.000000
  0
VERTEX
  8
0
 10
-0.500000
 20
0.000000
 40
0.000000
 41
0.000000
 42
0.000000
  0
VERTEX
  8
0
 10
-0.250000
 20
0.500000
 40
0.000000
 41
0.000000
 42
0.000000
  0
VERTEX
  8
0
 10
0.250000
 20
0.500000
 40
0.000000
 41
0.000000
 42
0.000000
  0
VERTEX
  8
0
 10
0.500000
 20
0.000000
 40
0.000000
 41
0.000000
 42
0.000000
  0
VERTEX
  8
0
 10
0.250000
 20
-0.500000
 40
0.000000
 41
0.000000
 42
0.000000
  0
VERTEX
  8
0
 10
-0.250000
 20
-0.500000
 40
0.000000
 41
0.000000
 42
0.000000
  0
SEQEND
  0
ENDBLK
  0
BLOCK
  8
0
  2
FIGURE_OCT
 70
0
 10
0.000000
 20
0.000000
  0
POLYLINE
  8
0
 66
1
 70
1
 40
0.000000
 41
0.000000
 39
0.000000
  0
VERTEX
  8
0
 10
-0.500000
 20
-0.207100
 40
0.000000
 41
0.000000
 42
0.000000
  0
VERTEX
  8
0
 10
-0.500000
 20
0.207100
 40
0.000000
 41
0.000000
 42
0.000000
  0
VERTEX
  8
0
 10
-0.207100
 20
0.500000
 40
0.000000
 41
0.000000
 42
0.000000
  0
VERTEX
  8
0
 10
0.207100
 20
0.500000
 40
0.000000
 41
0.000000
 42
0.000000
  0
VERTEX
  8
0
 10
0.500000
 20
0.207100
 40
0.000000
 41
0.000000
 42
0.000000
  0
VERTEX
  8
0
 10
0.500000
 20
-0.207100
 40
0.000000
 41
0.000000
 42
0.000000
  0
VERTEX
  8
0
 10
0.207100
 20
-0.500000
 40
0.000000
 41
0.000000
 42
0.000000
  0
VERTEX
  8
0
 10
-0.207100
 20
-0.500000
 40
0.000000
 41
0.000000
 42
0.000000
  0
SEQEND
  0
ENDBLK
  0
BLOCK
  8
0
  2
FIGURE_OBLONG
 70
0
 10
0.000000
 20
0.000000
  0
POLYLINE
  8
0
 66
1
 70
1
 40
0.000000
 41
0.000000
 39
0.000000
  0
VERTEX
  8
0
 10
-0.500000
 20
-0.125000
 40
0.000000
 41
0.000000
 42
0.000000
  0
VERTEX
  8
0
 10
-0.500000
 20
0.125000
 40
0.000000
 41
0.000000
 42
0.000000
  0
VERTEX
  8
0
 10
-0.416000
 20
0.375000
 40
0.000000
 41
0.000000
 42
0.000000
  0
VERTEX
  8
0
 10
-0.250000
 20
0.500000
 40
0.000000
 41
0.000000
 42
0.000000
  0
VERTEX
  8
0
 10
0.250000
 20
0.500000
 40
0.000000
 41
0.000000
 42
0.000000
  0
VERTEX
  8
0
 10
0.416000
 20
0.375000
 40
0.000000
 41
0.000000
 42
0.000000
  0
VERTEX
  8
0
 10
0.500000
 20
0.125000
 40
0.000000
 41
0.000000
 42
0.000000
  0
VERTEX
  8
0
 10
0.500000
 20
-0.125000
 40
0.000000
 41
0.000000
 42
0.000000
  0
VERTEX
  8
0
 10
0.416000
 20
-0.375000
 40
0.000000
 41
0.000000
 42
0.000000
  0
VERTEX
  8
0
 10
0.250000
 20
-0.500000
 40
0.000000
 41
0.000000
 42
0.000000
  0
VERTEX
  8
0
 10
-0.250000
 20
-0.500000
 40
0.000000
 41
0.000000
 42
0.000000
  0
VERTEX
  8
0
 10
-0.416000
 20
-0.375000
 40
0.000000
 41
0.000000
 42
0.000000
  0
SEQEND
  0
ENDBLK
  0
BLOCK
  8
0
  2
FIGURE_TRI
 70
0
 10
0.000000
 20
0.000000
  0
POLYLINE
  8
0
 66
1
 70
1
 40
0.000000
 41
0.000000
 39
0.000000
  0
VERTEX
  8
0
 10
-0.500000
 20
-0.500000
 40
0.000000
 41
0.000000
 42
0.000000
  0
VERTEX
  8
0
 10
0.000000
 20
0.500000
 40
0.000000
 41
0.000000
 42
0.000000
  0
VERTEX
  8
0
 10
0.500000
 20
-0.500000
 40
0.000000
 41
0.000000
 42
0.000000
  0
SEQEND
  0
ENDBLK
  0
BLOCK
  8
0
  2
FIGURE_CROSS
 70
0
 10
0.000000
 20
0.000000
  0
POLYLINE
  8
0
 66
1
 70
0
 40
0.000000
 41
0.000000
 39
0.000000
  0
VERTEX
  8
0
 10
-0.500000
 20
0.000000
 40
0.000000
 41
0.000000
 42
0.000000
  0
VERTEX
  8
0
 10
0.500000
 20
0.000000
 40
0.000000
 41
0.000000
 42
0.000000
  0
SEQEND
  0
POLYLINE
  8
0
 66
1
 70
0
 40
0.000000
 41
0.000000
 39
0.000000
  0
VERTEX
  8
0
 10
0.000000
 20
0.500000
 40
0.000000
 41
0.000000
 42
0.000000
  0
VERTEX
  8
0
 10
0.000000
 20
-0.500000
 40
0.000000
 41
0.000000
 42
0.000000
  0
SEQEND
  0
ENDBLK
  0
BLOCK
  8
0
  2
FIGURE_DIAMOND
 70
0
 10
0.000000
 20
0.000000
  0
POLYLINE
  8
0
 66
1
 70
1
 40
0.000000
 41
0.000000
 39
0.000000
  0
VERTEX
  8
0
 10
-0.500000
 20
0.000000
 40
0.000000
 41
0.000000
 42
0.000000
  0
VERTEX
  8
0
 10
0.000000
 20
0.500000
 40
0.000000
 41
0.000000
 42
0.000000
  0
VERTEX
  8
0
 10
0.500000
 20
0.000000
 40
0.000000
 41
0.000000
 42
0.000000
  0
VERTEX
  8
0
 10
0.000000
 20
-0.500000
 40
0.000000
 41
0.000000
 42
0.000000
  0
SEQEND
  0
ENDBLK
  0
ENDSEC
  0
SECTION
  2
ENTITIES
  0
POLYLINE
  8
ET_TOP
 66
1
 70
1
 40
0.000000
 41
0.000000
 39
0.000000
  0
VERTEX
  8
ET_TOP
 10
86.200200
 20
3.700200
 40
0.000000
 41
0.000000
 42
0.000000
  0
VERTEX
  8
ET_TOP
 10
86.200200
 20
41.299800
 40
0.000000
 41
0.000000
 42
0.000000
  0
VERTEX
  8
ET_TOP
 10
111.200000
 20
41.299800
 40
0.000000
 41
0.000000
 42
0.000000
  0
VERTEX
  8
ET_TOP
 10
111.200000
 20
3.700200
 40
0.000000
 41
0.000000
 42
0.000000
  0
SEQEND
  0
POLYLINE
  8
ET_TOP
 66
1
 70
1
 40
0.000000
 41
0.000000
 39
0.000000
  0
VERTEX
  8
ET_TOP
 10
92.200300
 20
9.800000
 40
0.000000
 41
0.000000
 42
1.000000
  0
VERTEX
  8
ET_TOP
 10
91.199686
 20
9.800018
 40
0.000000
 41
0.000000
 42
1.000000
  0
SEQEND
  0
POLYLINE
  8
ET_TOP
 66
1
 70
1
 40
0.000000
 41
0.000000
 39
0.000000
  0
VERTEX
  8
ET_TOP
 10
103.700200
 20
22.500000
 40
0.000000
 41
0.000000
 42
1.000000
  0
VERTEX
  8
ET_TOP
 10
93.699800
 20
22.500000
 40
0.000000
 41
0.000000
 42
1.000000
  0
SEQEND
  0
POLYLINE
  8
ET_TOP
 66
1
 70
1
 40
0.000000
 41
0.000000
 39
0.000000
  0
VERTEX
  8
ET_TOP
 10
92.200300
 20
35.200000
 40
0.000000
 41
0.000000
 42
1.000000
  0
VERTEX
  8
ET_TOP
 10
91.199686
 20
35.200018
 40
0.000000
 41
0.000000
 42
1.000000
  0
SEQEND
  0
POLYLINE
  8
ET_TOP
 66
1
 70
1
 40
0.000000
 41
0.000000
 39
0.000000
  0
VERTEX
  8
ET_TOP
 10
106.200300
 20
9.800000
 40
0.000000
 41
0.000000
 42
1.000000
  0
VERTEX
  8
ET_TOP
 10
105.199686
 20
9.800018
 40
0.000000
 41
0.000000
 42
1.000000
  0
SEQEND
  0
POLYLINE
  8
ET_TOP
 66
1
 70
1
 40
0.000000
 41
0.000000
 39
0.000000
  0
VERTEX
  8
ET_TOP
 10
106.200300
 20
35.200000
 40
0.000000
 41
0.000000
 42
1.000000
  0
VERTEX
  8
ET_TOP
 10
105.199686
 20
35.200018
 40
0.000000
 41
0.000000
 42
1.000000
  0
SEQEND
  0
POLYLINE
  8
ET_TOP
 66
1
 70
1
 40
0.000000
 41
0.000000
 39
0.000000
  0
VERTEX
  8
ET_TOP
 10
136.600000
 20
3.700200
 40
0.000000
 41
0.000000
 42
0.000000
  0
VERTEX
  8
ET_TOP
 10
133.668200
 20
3.700200
 40
0.000000
 41
0.000000
 42
0.000000
  0
VERTEX
  8
ET_TOP
 10
126.668200
 20
10.700200
 40
0.000000
 41
0.000000
 42
0.000000
  0
VERTEX
  8
ET_TOP
 10
121.531800
 20
10.700200
 40
0.000000
 41
0.000000
 42
0.000000
  0
VERTEX
  8
ET_TOP
 10
114.531800
 20
3.700200
 40
0.000000
 41
0.000000
 42
0.000000
  0
VERTEX
  8
ET_TOP
 10
111.600200
 20
3.700200
 40
0.000000
 41
0.000000
 42
0.000000
  0
VERTEX
  8
ET_TOP
 10
111.600200
 20
41.299800
 40
0.000000
 41
0.000000
 42
0.000000
  0
VERTEX
  8
ET_TOP
 10
114.531800
 20
41.299800
 40
0.000000
 41
0.000000
 42
0.000000
  0
VERTEX
  8
ET_TOP
 10
121.531800
 20
34.299800
 40
0.000000
 41
0.000000
 42
0.000000
  0
VERTEX
  8
ET_TOP
 10
126.668200
 20
34.299800
 40
0.000000
 41
0.000000
 42
0.000000
  0
VERTEX
  8
ET_TOP
 10
133.668200
 20
41.299800
 40
0.000000
 41
0.000000
 42
0.000000
  0
VERTEX
  8
ET_TOP
 10
136.600000
 20
41.299800
 40
0.000000
 41
0.000000
 42
0.000000
  0
VERTEX
  8
ET_TOP
 10
136.600000
 20
29.899800
 40
0.000000
 41
0.000000
 42
0.000000
  0
VERTEX
  8
ET_TOP
 10
117.250000
 20
29.899800
 40
0.000000
 41
0.000000
 42
0.000000
  0
VERTEX
  8
ET_TOP
 10
117.250000
 20
15.100200
 40
0.000000
 41
0.000000
 42
0.000000
  0
VERTEX
  8
ET_TOP
 10
136.600000
 20
15.100200
 40
0.000000
 41
0.000000
 42
0.000000
  0
SEQEND
  0
POLYLINE
  8
ET_TOP
 66
1
 70
1
 40
0.000000
 41
0.000000
 39
0.000000
  0
VERTEX
  8
ET_TOP
 10
117.600300
 20
9.800000
 40
0.000000
 41
0.000000
 42
1.000000
  0
VERTEX
  8
ET_TOP
 10
116.599686
 20
9.800018
 40
0.000000
 41
0.000000
 42
1.000000
  0
SEQEND
  0
POLYLINE
  8
ET_TOP
 66
1
 70
1
 40
0.000000
 41
0.000000
 39
0.000000
  0
VERTEX
  8
ET_TOP
 10
117.600300
 20
35.200000
 40
0.000000
 41
0.000000
 42
1.000000
  0
VERTEX
  8
ET_TOP
 10
116.599686
 20
35.200018
 40
0.000000
 41
0.000000
 42
1.000000
  0
SEQEND
  0
POLYLINE
  8
ET_TOP
 66
1
 70
1
 40
0.000000
 41
0.000000
 39
0.000000
  0
VERTEX
  8
ET_TOP
 10
131.600300
 20
9.800000
 40
0.000000
 41
0.000000
 42
1.000000
  0
VERTEX
  8
ET_TOP
 10
130.599686
 20
9.800018
 40
0.000000
 41
0.000000
 42
1.000000
  0
SEQEND
  0
POLYLINE
  8
ET_TOP
 66
1
 70
1
 40
0.000000
 41
0.000000
 39
0.000000
  0
VERTEX
  8
ET_TOP
 10
131.600300
 20
35.200000
 40
0.000000
 41
0.000000
 42
1.000000
  0
VERTEX
  8
ET_TOP
 10
130.599686
 20
35.200018
 40
0.000000
 41
0.000000
 42
1.000000
  0
SEQEND
  0
POLYLINE
  8
ET_TOP
 66
1
 70
1
 40
0.000000
 41
0.000000
 39
0.000000
  0
VERTEX
  8
ET_TOP
 10
34.999800
 20
3.700200
 40
0.000000
 41
0.000000
 42
0.000000
  0
VERTEX
  8
ET_TOP
 10
32.068200
 20
3.700200
 40
0.000000
 41
0.000000
 42
0.000000
  0
VERTEX
  8
ET_TOP
 10
25.068200
 20
10.700200
 40
0.000000
 41
0.000000
 42
0.000000
  0
VERTEX
  8
ET_TOP
 10
19.931800
 20
10.700200
 40
0.000000
 41
0.000000
 42
0.000000
  0
VERTEX
  8
ET_TOP
 10
12.931800
 20
3.700200
 40
0.000000
 41
0.000000
 42
0.000000
  0
VERTEX
  8
ET_TOP
 10
10.000000
 20
3.700200
 40
0.000000
 41
0.000000
 42
0.000000
  0
VERTEX
  8
ET_TOP
 10
10.000000
 20
12.015000
 40
0.000000
 41
0.000000
 42
0.000000
  0
VERTEX
  8
ET_TOP
 10
13.085200
 20
15.100200
 40
0.000000
 41
0.000000
 42
0.000000
  0
VERTEX
  8
ET_TOP
 10
32.500000
 20
15.100200
 40
0.000000
 41
0.000000
 42
0.000000
  0
VERTEX
  8
ET_TOP
 10
32.500000
 20
32.415000
 40
0.000000
 41
0.000000
 42
0.000000
  0
VERTEX
  8
ET_TOP
 10
10.570000
 20
32.415000
 40
0.000000
 41
0.000000
 42
0.000000
  0
VERTEX
  8
ET_TOP
 10
10.000000
 20
32.985000
 40
0.000000
 41
0.000000
 42
0.000000
  0
VERTEX
  8
ET_TOP
 10
10.000000
 20
41.299800
 40
0.000000
 41
0.000000
 42
0.000000
  0
VERTEX
  8
ET_TOP
 10
12.931800
 20
41.299800
 40
0.000000
 41
0.000000
 42
0.000000
  0
VERTEX
  8
ET_TOP
 10
19.931800
 20
34.299800
 40
0.000000
 41
0.000000
 42
0.000000
  0
VERTEX
  8
ET_TOP
 10
25.068200
 20
34.299800
 40
0.000000
 41
0.000000
 42
0.000000
  0
VERTEX
  8
ET_TOP
 10
32.068200
 20
41.299800
 40
0.000000
 41
0.000000
 42
0.000000
  0
VERTEX
  8
ET_TOP
 10
34.999800
 20
41.299800
 40
0.000000
 41
0.000000
 42
0.000000
  0
SEQEND
  0
POLYLINE
  8
ET_TOP
 66
1
 70
1
 40
0.000000
 41
0.000000
 39
0.000000
  0
VERTEX
  8
ET_TOP
 10
16.000300
 20
9.800000
 40
0.000000
 41
0.000000
 42
1.000000
  0
VERTEX
  8
ET_TOP
 10
14.999686
 20
9.800018
 40
0.000000
 41
0.000000
 42
1.000000
  0
SEQEND
  0
POLYLINE
  8
ET_TOP
 66
1
 70
1
 40
0.000000
 41
0.000000
 39
0.000000
  0
VERTEX
  8
ET_TOP
 10
16.000300
 20
35.200000
 40
0.000000
 41
0.000000
 42
1.000000
  0
VERTEX
  8
ET_TOP
 10
14.999686
 20
35.200018
 40
0.000000
 41
0.000000
 42
1.000000
  0
SEQEND
  0
POLYLINE
  8
ET_TOP
 66
1
 70
1
 40
0.000000
 41
0.000000
 39
0.000000
  0
VERTEX
  8
ET_TOP
 10
30.000300
 20
9.800000
 40
0.000000
 41
0.000000
 42
1.000000
  0
VERTEX
  8
ET_TOP
 10
28.999686
 20
9.800018
 40
0.000000
 41
0.000000
 42
1.000000
  0
SEQEND
  0
POLYLINE
  8
ET_TOP
 66
1
 70
1
 40
0.000000
 41
0.000000
 39
0.000000
  0
VERTEX
  8
ET_TOP
 10
30.000300
 20
35.200000
 40
0.000000
 41
0.000000
 42
1.000000
  0
VERTEX
  8
ET_TOP
 10
28.999686
 20
35.200018
 40
0.000000
 41
0.000000
 42
1.000000
  0
SEQEND
  0
POLYLINE
  8
ET_TOP
 66
1
 70
1
 40
0.000000
 41
0.000000
 39
0.000000
  0
VERTEX
  8
ET_TOP
 10
85.800000
 20
3.700200
 40
0.000000
 41
0.000000
 42
0.000000
  0
VERTEX
  8
ET_TOP
 10
82.868200
 20
3.700200
 40
0.000000
 41
0.000000
 42
0.000000
  0
VERTEX
  8
ET_TOP
 10
75.868200
 20
10.700200
 40
0.000000
 41
0.000000
 42
0.000000
  0
VERTEX
  8
ET_TOP
 10
70.731800
 20
10.700200
 40
0.000000
 41
0.000000
 42
0.000000
  0
VERTEX
  8
ET_TOP
 10
63.731800
 20
3.700200
 40
0.000000
 41
0.000000
 42
0.000000
  0
VERTEX
  8
ET_TOP
 10
60.800200
 20
3.700200
 40
0.000000
 41
0.000000
 42
0.000000
  0
VERTEX
  8
ET_TOP
 10
60.800200
 20
41.299800
 40
0.000000
 41
0.000000
 42
0.000000
  0
VERTEX
  8
ET_TOP
 10
63.731800
 20
41.299800
 40
0.000000
 41
0.000000
 42
0.000000
  0
VERTEX
  8
ET_TOP
 10
70.731800
 20
34.299800
 40
0.000000
 41
0.000000
 42
0.000000
  0
VERTEX
  8
ET_TOP
 10
75.868200
 20
34.299800
 40
0.000000
 41
0.000000
 42
0.000000
  0
VERTEX
  8
ET_TOP
 10
82.868200
 20
41.299800
 40
0.000000
 41
0.000000
 42
0.000000
  0
VERTEX
  8
ET_TOP
 10
85.800000
 20
41.299800
 40
0.000000
 41
0.000000
 42
0.000000
  0
SEQEND
  0
POLYLINE
  8
ET_TOP
 66
1
 70
1
 40
0.000000
 41
0.000000
 39
0.000000
  0
VERTEX
  8
ET_TOP
 10
66.800300
 20
9.800000
 40
0.000000
 41
0.000000
 42
1.000000
  0
VERTEX
  8
ET_TOP
 10
65.799686
 20
9.800018
 40
0.000000
 41
0.000000
 42
1.000000
  0
SEQEND
  0
POLYLINE
  8
ET_TOP
 66
1
 70
1
 40
0.000000
 41
0.000000
 39
0.000000
  0
VERTEX
  8
ET_TOP
 10
78.300200
 20
22.500000
 40
0.000000
 41
0.000000
 42
1.000000
  0
VERTEX
  8
ET_TOP
 10
68.299800
 20
22.500000
 40
0.000000
 41
0.000000
 42
1.000000
  0
SEQEND
  0
POLYLINE
  8
ET_TOP
 66
1
 70
1
 40
0.000000
 41
0.000000
 39
0.000000
  0
VERTEX
  8
ET_TOP
 10
66.800300
 20
35.200000
 40
0.000000
 41
0.000000
 42
1.000000
  0
VERTEX
  8
ET_TOP
 10
65.799686
 20
35.200018
 40
0.000000
 41
0.000000
 42
1.000000
  0
SEQEND
  0
POLYLINE
  8
ET_TOP
 66
1
 70
1
 40
0.000000
 41
0.000000
 39
0.000000
  0
VERTEX
  8
ET_TOP
 10
80.800300
 20
9.800000
 40
0.000000
 41
0.000000
 42
1.000000
  0
VERTEX
  8
ET_TOP
 10
79.799686
 20
9.800018
 40
0.000000
 41
0.000000
 42
1.000000
  0
SEQEND
  0
POLYLINE
  8
ET_TOP
 66
1
 70
1
 40
0.000000
 41
0.000000
 39
0.000000
  0
VERTEX
  8
ET_TOP
 10
80.800300
 20
35.200000
 40
0.000000
 41
0.000000
 42
1.000000
  0
VERTEX
  8
ET_TOP
 10
79.799686
 20
35.200018
 40
0.000000
 41
0.000000
 42
1.000000
  0
SEQEND
  0
POLYLINE
  8
ET_TOP
 66
1
 70
1
 40
0.000000
 41
0.000000
 39
0.000000
  0
VERTEX
  8
ET_TOP
 10
35.400000
 20
3.700200
 40
0.000000
 41
0.000000
 42
0.000000
  0
VERTEX
  8
ET_TOP
 10
35.400000
 20
41.299800
 40
0.000000
 41
0.000000
 42
0.000000
  0
VERTEX
  8
ET_TOP
 10
60.400000
 20
41.299800
 40
0.000000
 41
0.000000
 42
0.000000
  0
VERTEX
  8
ET_TOP
 10
60.400000
 20
3.700200
 40
0.000000
 41
0.000000
 42
0.000000
  0
SEQEND
  0
POLYLINE
  8
ET_TOP
 66
1
 70
1
 40
0.000000
 41
0.000000
 39
0.000000
  0
VERTEX
  8
ET_TOP
 10
41.400300
 20
9.800000
 40
0.000000
 41
0.000000
 42
1.000000
  0
VERTEX
  8
ET_TOP
 10
40.399686
 20
9.800018
 40
0.000000
 41
0.000000
 42
1.000000
  0
SEQEND
  0
POLYLINE
  8
ET_TOP
 66
1
 70
1
 40
0.000000
 41
0.000000
 39
0.000000
  0
VERTEX
  8
ET_TOP
 10
41.400300
 20
35.200000
 40
0.000000
 41
0.000000
 42
1.000000
  0
VERTEX
  8
ET_TOP
 10
40.399686
 20
35.200018
 40
0.000000
 41
0.000000
 42
1.000000
  0
SEQEND
  0
POLYLINE
  8
ET_TOP
 66
1
 70
1
 40
0.000000
 41
0.000000
 39
0.000000
  0
VERTEX
  8
ET_TOP
 10
52.900200
 20
22.500000
 40
0.000000
 41
0.000000
 42
1.000000
  0
VERTEX
  8
ET_TOP
 10
42.899800
 20
22.500000
 40
0.000000
 41
0.000000
 42
1.000000
  0
SEQEND
  0
POLYLINE
  8
ET_TOP
 66
1
 70
1
 40
0.000000
 41
0.000000
 39
0.000000
  0
VERTEX
  8
ET_TOP
 10
55.400300
 20
9.800000
 40
0.000000
 41
0.000000
 42
1.000000
  0
VERTEX
  8
ET_TOP
 10
54.399686
 20
9.800018
 40
0.000000
 41
0.000000
 42
1.000000
  0
SEQEND
  0
POLYLINE
  8
ET_TOP
 66
1
 70
1
 40
0.000000
 41
0.000000
 39
0.000000
  0
VERTEX
  8
ET_TOP
 10
55.400300
 20
35.200000
 40
0.000000
 41
0.000000
 42
1.000000
  0
VERTEX
  8
ET_TOP
 10
54.399686
 20
35.200018
 40
0.000000
 41
0.000000
 42
1.000000
  0
SEQEND
  0
POLYLINE
  8
ET_TOP
 66
1
 70
0
 40
0.000000
 41
0.000000
 39
0.000000
  0
VERTEX
  8
ET_TOP
 10
4.750000
 20
42.000000
 40
1.000000
 41
1.000000
 42
0.000000
  0
VERTEX
  8
ET_TOP
 10
13.221800
 20
42.000000
 40
1.000000
 41
1.000000
 42
0.000000
  0
VERTEX
  8
ET_TOP
 10
20.221800
 20
35.000000
 40
1.000000
 41
1.000000
 42
0.000000
  0
VERTEX
  8
ET_TOP
 10
24.778200
 20
35.000000
 40
1.000000
 41
1.000000
 42
0.000000
  0
VERTEX
  8
ET_TOP
 10
31.778200
 20
42.000000
 40
1.000000
 41
1.000000
 42
0.000000
  0
VERTEX
  8
ET_TOP
 10
64.021800
 20
42.000000
 40
1.000000
 41
1.000000
 42
0.000000
  0
VERTEX
  8
ET_TOP
 10
71.021800
 20
35.000000
 40
1.000000
 41
1.000000
 42
0.000000
  0
VERTEX
  8
ET_TOP
 10
75.578200
 20
35.000000
 40
1.000000
 41
1.000000
 42
0.000000
  0
VERTEX
  8
ET_TOP
 10
82.578200
 20
42.000000
 40
1.000000
 41
1.000000
 42
0.000000
  0
VERTEX
  8
ET_TOP
 10
114.821800
 20
42.000000
 40
1.000000
 41
1.000000
 42
0.000000
  0
VERTEX
  8
ET_TOP
 10
121.821800
 20
35.000000
 40
1.000000
 41
1.000000
 42
0.000000
  0
VERTEX
  8
ET_TOP
 10
126.378200
 20
35.000000
 40
1.000000
 41
1.000000
 42
0.000000
  0
VERTEX
  8
ET_TOP
 10
133.378200
 20
42.000000
 40
1.000000
 41
1.000000
 42
0.000000
  0
VERTEX
  8
ET_TOP
 10
138.250000
 20
42.000000
 40
1.000000
 41
1.000000
 42
0.000000
  0
SEQEND
  0
POLYLINE
  8
ET_TOP
 66
1
 70
1
 40
0.000000
 41
0.000000
 39
0.000000
  0
VERTEX
  8
ET_TOP
 10
137.000200
 20
3.700200
 40
0.000000
 41
0.000000
 42
0.000000
  0
VERTEX
  8
ET_TOP
 10
137.000200
 20
15.500400
 40
0.000000
 41
0.000000
 42
0.000000
  0
VERTEX
  8
ET_TOP
 10
137.000000
 20
15.500400
 40
0.000000
 41
0.000000
 42
0.000000
  0
VERTEX
  8
ET_TOP
 10
137.000000
 20
15.600200
 40
0.000000
 41
0.000000
 42
0.000000
  0
VERTEX
  8
ET_TOP
 10
117.750000
 20
15.600200
 40
0.000000
 41
0.000000
 42
0.000000
  0
VERTEX
  8
ET_TOP
 10
117.750000
 20
29.399800
 40
0.000000
 41
0.000000
 42
0.000000
  0
VERTEX
  8
ET_TOP
 10
137.000000
 20
29.399800
 40
0.000000
 41
0.000000
 42
0.000000
  0
VERTEX
  8
ET_TOP
 10
137.000000
 20
29.499600
 40
0.000000
 41
0.000000
 42
0.000000
  0
VERTEX
  8
ET_TOP
 10
137.000200
 20
29.499600
 40
0.000000
 41
0.000000
 42
0.000000
  0
VERTEX
  8
ET_TOP
 10
137.000200
 20
42.150200
 40
0.000000
 41
0.000000
 42
0.000000
  0
VERTEX
  8
ET_TOP
 10
137.000000
 20
42.150200
 40
0.000000
 41
0.000000
 42
0.000000
  0
VERTEX
  8
ET_TOP
 10
137.000000
 20
42.499900
 40
0.000000
 41
0.000000
 42
0.000000
  0
VERTEX
  8
ET_TOP
 10
140.899800
 20
42.499900
 40
0.000000
 41
0.000000
 42
0.000000
  0
VERTEX
  8
ET_TOP
 10
140.899800
 20
39.299800
 40
0.000000
 41
0.000000
 42
0.000000
  0
VERTEX
  8
ET_TOP
 10
144.099900
 20
39.299800
 40
0.000000
 41
0.000000
 42
0.000000
  0
VERTEX
  8
ET_TOP
 10
144.099900
 20
25.200000
 40
0.000000
 41
0.000000
 42
0.000000
  0
VERTEX
  8
ET_TOP
 10
122.730000
 20
25.200000
 40
0.000000
 41
0.000000
 42
0.000000
  0
VERTEX
  8
ET_TOP
 10
122.730000
 20
19.800000
 40
0.000000
 41
0.000000
 42
0.000000
  0
VERTEX
  8
ET_TOP
 10
140.250000
 20
19.800000
 40
0.000000
 41
0.000000
 42
0.000000
  0
VERTEX
  8
ET_TOP
 10
140.250000
 20
3.700200
 40
0.000000
 41
0.000000
 42
0.000000
  0
SEQEND
  0
POLYLINE
  8
ET_TOP
 66
1
 70
1
 40
0.000000
 41
0.000000
 39
0.000000
  0
VERTEX
  8
ET_TOP
 10
143.000300
 20
35.200000
 40
0.000000
 41
0.000000
 42
1.000000
  0
VERTEX
  8
ET_TOP
 10
141.999686
 20
35.200018
 40
0.000000
 41
0.000000
 42
1.000000
  0
SEQEND
  0
POLYLINE
  8
ET_TOP
 66
1
 70
1
 40
0.000000
 41
0.000000
 39
0.000000
  0
VERTEX
  8
ET_TOP
 10
2.500100
 20
28.500100
 40
0.000000
 41
0.000000
 42
0.000000
  0
VERTEX
  8
ET_TOP
 10
2.500100
 20
42.499900
 40
0.000000
 41
0.000000
 42
0.000000
  0
VERTEX
  8
ET_TOP
 10
6.500000
 20
42.499900
 40
0.000000
 41
0.000000
 42
0.000000
  0
VERTEX
  8
ET_TOP
 10
6.500000
 20
32.250000
 40
0.000000
 41
0.000000
 42
0.000000
  0
VERTEX
  8
ET_TOP
 10
9.750000
 20
29.000000
 40
0.000000
 41
0.000000
 42
0.000000
  0
VERTEX
  8
ET_TOP
 10
29.500000
 20
29.000000
 40
0.000000
 41
0.000000
 42
0.000000
  0
VERTEX
  8
ET_TOP
 10
29.500000
 20
23.500000
 40
0.000000
 41
0.000000
 42
0.000000
  0
VERTEX
  8
ET_TOP
 10
10.500100
 20
23.500000
 40
0.000000
 41
0.000000
 42
0.000000
  0
VERTEX
  8
ET_TOP
 10
10.500100
 20
24.000000
 40
0.000000
 41
0.000000
 42
0.414214
  0
VERTEX
  8
ET_TOP
 10
6.000000
 20
28.500100
 40
0.000000
 41
0.000000
 42
0.000000
  0
SEQEND
  0
POLYLINE
  8
ET_TOP
 66
1
 70
1
 40
0.000000
 41
0.000000
 39
0.000000
  0
VERTEX
  8
ET_TOP
 10
4.600300
 20
35.200000
 40
0.000000
 41
0.000000
 42
1.000000
  0
VERTEX
  8
ET_TOP
 10
3.599686
 20
35.200018
 40
0.000000
 41
0.000000
 42
1.000000
  0
SEQEND
  0
POLYLINE
  8
ET_TOP
 66
1
 70
0
 40
0.000000
 41
0.000000
 39
0.000000
  0
VERTEX
  8
ET_TOP
 10
142.250000
 20
3.000000
 40
1.000000
 41
1.000000
 42
0.000000
  0
VERTEX
  8
ET_TOP
 10
133.378200
 20
3.000000
 40
1.000000
 41
1.000000
 42
0.000000
  0
VERTEX
  8
ET_TOP
 10
126.378200
 20
10.000000
 40
1.000000
 41
1.000000
 42
0.000000
  0
VERTEX
  8
ET_TOP
 10
121.821800
 20
10.000000
 40
1.000000
 41
1.000000
 42
0.000000
  0
VERTEX
  8
ET_TOP
 10
114.821800
 20
3.000000
 40
1.000000
 41
1.000000
 42
0.000000
  0
VERTEX
  8
ET_TOP
 10
82.578200
 20
3.000000
 40
1.000000
 41
1.000000
 42
0.000000
  0
VERTEX
  8
ET_TOP
 10
75.578200
 20
10.000000
 40
1.000000
 41
1.000000
 42
0.000000
  0
VERTEX
  8
ET_TOP
 10
71.021800
 20
10.000000
 40
1.000000
 41
1.000000
 42
0.000000
  0
VERTEX
  8
ET_TOP
 10
64.021800
 20
3.000000
 40
1.000000
 41
1.000000
 42
0.000000
  0
VERTEX
  8
ET_TOP
 10
31.778200
 20
3.000000
 40
1.000000
 41
1.000000
 42
0.000000
  0
VERTEX
  8
ET_TOP
 10
24.778200
 20
10.000000
 40
1.000000
 41
1.000000
 42
0.000000
  0
VERTEX
  8
ET_TOP
 10
20.221800
 20
10.000000
 40
1.000000
 41
1.000000
 42
0.000000
  0
VERTEX
  8
ET_TOP
 10
13.221800
 20
3.000000
 40
1.000000
 41
1.000000
 42
0.000000
  0
VERTEX
  8
ET_TOP
 10
8.100000
 20
3.000000
 40
1.000000
 41
1.000000
 42
0.000000
  0
SEQEND
  0
POLYLINE
  8
ET_TOP
 66
1
 70
1
 40
0.000000
 41
0.000000
 39
0.000000
  0
VERTEX
  8
ET_TOP
 10
5.700200
 20
2.500100
 40
0.000000
 41
0.000000
 42
0.000000
  0
VERTEX
  8
ET_TOP
 10
5.700200
 20
5.700200
 40
0.000000
 41
0.000000
 42
0.000000
  0
VERTEX
  8
ET_TOP
 10
2.500100
 20
5.700200
 40
0.000000
 41
0.000000
 42
0.000000
  0
VERTEX
  8
ET_TOP
 10
2.500100
 20
16.499900
 40
0.000000
 41
0.000000
 42
0.000000
  0
VERTEX
  8
ET_TOP
 10
6.000000
 20
16.499900
 40
0.000000
 41
0.000000
 42
0.414214
  0
VERTEX
  8
ET_TOP
 10
10.500100
 20
21.000000
 40
0.000000
 41
0.000000
 42
0.000000
  0
VERTEX
  8
ET_TOP
 10
10.500100
 20
21.500000
 40
0.000000
 41
0.000000
 42
0.000000
  0
VERTEX
  8
ET_TOP
 10
30.000000
 20
21.500000
 40
0.000000
 41
0.000000
 42
0.000000
  0
VERTEX
  8
ET_TOP
 10
30.000000
 20
29.500000
 40
0.000000
 41
0.000000
 42
0.000000
  0
VERTEX
  8
ET_TOP
 10
10.015000
 20
29.500000
 40
0.000000
 41
0.000000
 42
0.000000
  0
VERTEX
  8
ET_TOP
 10
7.100000
 20
32.415000
 40
0.000000
 41
0.000000
 42
0.000000
  0
VERTEX
  8
ET_TOP
 10
7.100000
 20
41.299800
 40
0.000000
 41
0.000000
 42
0.000000
  0
VERTEX
  8
ET_TOP
 10
9.599800
 20
41.299800
 40
0.000000
 41
0.000000
 42
0.000000
  0
VERTEX
  8
ET_TOP
 10
9.599800
 20
32.819200
 40
0.000000
 41
0.000000
 42
0.000000
  0
VERTEX
  8
ET_TOP
 10
9.600000
 20
32.819000
 40
0.000000
 41
0.000000
 42
0.000000
  0
VERTEX
  8
ET_TOP
 10
9.600000
 20
32.650000
 40
0.000000
 41
0.000000
 42
0.000000
  0
VERTEX
  8
ET_TOP
 10
10.335000
 20
31.915000
 40
0.000000
 41
0.000000
 42
0.000000
  0
VERTEX
  8
ET_TOP
 10
32.000000
 20
31.915000
 40
0.000000
 41
0.000000
 42
0.000000
  0
VERTEX
  8
ET_TOP
 10
32.000000
 20
15.600200
 40
0.000000
 41
0.000000
 42
0.000000
  0
VERTEX
  8
ET_TOP
 10
12.850200
 20
15.600200
 40
0.000000
 41
0.000000
 42
0.000000
  0
VERTEX
  8
ET_TOP
 10
9.600000
 20
12.350000
 40
0.000000
 41
0.000000
 42
0.000000
  0
VERTEX
  8
ET_TOP
 10
9.600000
 20
12.181000
 40
0.000000
 41
0.000000
 42
0.000000
  0
VERTEX
  8
ET_TOP
 10
9.599800
 20
12.180800
 40
0.000000
 41
0.000000
 42
0.000000
  0
VERTEX
  8
ET_TOP
 10
9.599800
 20
2.849800
 40
0.000000
 41
0.000000
 42
0.000000
  0
VERTEX
  8
ET_TOP
 10
9.600000
 20
2.849800
 40
0.000000
 41
0.000000
 42
0.000000
  0
VERTEX
  8
ET_TOP
 10
9.600000
 20
2.500100
 40
0.000000
 41
0.000000
 42
0.000000
  0
SEQEND
  0
POLYLINE
  8
ET_TOP
 66
1
 70
1
 40
0.000000
 41
0.000000
 39
0.000000
  0
VERTEX
  8
ET_TOP
 10
4.600300
 20
9.800000
 40
0.000000
 41
0.000000
 42
1.000000
  0
VERTEX
  8
ET_TOP
 10
3.599686
 20
9.800018
 40
0.000000
 41
0.000000
 42
1.000000
  0
SEQEND
  0
POLYLINE
  8
ET_TOP
 66
1
 70
1
 40
0.000000
 41
0.000000
 39
0.000000
  0
VERTEX
  8
ET_TOP
 10
31.500400
 20
22.500000
 40
0.000000
 41
0.000000
 42
1.000000
  0
VERTEX
  8
ET_TOP
 10
30.799600
 20
22.500000
 40
0.000000
 41
0.000000
 42
1.000000
  0
SEQEND
  0
POLYLINE
  8
ET_TOP
 66
1
 70
1
 40
0.000000
 41
0.000000
 39
0.000000
  0
VERTEX
  8
ET_TOP
 10
144.099900
 20
2.500100
 40
0.000000
 41
0.000000
 42
0.000000
  0
VERTEX
  8
ET_TOP
 10
140.750000
 20
2.500100
 40
0.000000
 41
0.000000
 42
0.000000
  0
VERTEX
  8
ET_TOP
 10
140.750000
 20
20.300000
 40
0.000000
 41
0.000000
 42
0.000000
  0
VERTEX
  8
ET_TOP
 10
125.470000
 20
20.300000
 40
0.000000
 41
0.000000
 42
0.000000
  0
VERTEX
  8
ET_TOP
 10
125.470000
 20
24.700000
 40
0.000000
 41
0.000000
 42
0.000000
  0
VERTEX
  8
ET_TOP
 10
144.099900
 20
24.700000
 40
0.000000
 41
0.000000
 42
0.000000
  0
SEQEND
  0
POLYLINE
  8
ET_TOP
 66
1
 70
1
 40
0.000000
 41
0.000000
 39
0.000000
  0
VERTEX
  8
ET_TOP
 10
143.000300
 20
9.800000
 40
0.000000
 41
0.000000
 42
1.000000
  0
VERTEX
  8
ET_TOP
 10
141.999686
 20
9.800018
 40
0.000000
 41
0.000000
 42
1.000000
  0
SEQEND
  0
CIRCLE
  8
PIN_SOLDERMASK_TOP
 10
66.250000
 20
32.000000
 40
0.750000
  0
CIRCLE
  8
PIN_TOP
 10
142.500000
 20
40.900000
 40
1.000000
  0
POLYLINE
  8
PIN_SOLDERMASK_TOP
 66
1
 70
1
 40
0.000000
 41
0.000000
 39
0.000000
  0
VERTEX
  8
PIN_SOLDERMASK_TOP
 10
144.000000
 20
39.400000
 40
0.000000
 41
0.000000
 42
0.000000
  0
VERTEX
  8
PIN_SOLDERMASK_TOP
 10
141.000000
 20
39.400000
 40
0.000000
 41
0.000000
 42
0.000000
  0
VERTEX
  8
PIN_SOLDERMASK_TOP
 10
141.000000
 20
42.400000
 40
0.000000
 41
0.000000
 42
0.000000
  0
VERTEX
  8
PIN_SOLDERMASK_TOP
 10
144.000000
 20
42.400000
 40
0.000000
 41
0.000000
 42
0.000000
  0
SEQEND
  0
CIRCLE
  8
PIN_TOP
 10
4.100000
 20
4.100000
 40
1.000000
  0
POLYLINE
  8
PIN_SOLDERMASK_TOP
 66
1
 70
1
 40
0.000000
 41
0.000000
 39
0.000000
  0
VERTEX
  8
PIN_SOLDERMASK_TOP
 10
5.600000
 20
2.600000
 40
0.000000
 41
0.000000
 42
0.000000
  0
VERTEX
  8
PIN_SOLDERMASK_TOP
 10
2.600000
 20
2.600000
 40
0.000000
 41
0.000000
 42
0.000000
  0
VERTEX
  8
PIN_SOLDERMASK_TOP
 10
2.600000
 20
5.600000
 40
0.000000
 41
0.000000
 42
0.000000
  0
VERTEX
  8
PIN_SOLDERMASK_TOP
 10
5.600000
 20
5.600000
 40
0.000000
 41
0.000000
 42
0.000000
  0
SEQEND
  0
CIRCLE
  8
PIN_TOP
 10
124.100000
 20
40.500000
 40
1.750000
  0
CIRCLE
  8
PIN_SOLDERMASK_TOP
 10
124.100000
 20
40.500000
 40
1.800000
  0
INSERT
  8
MA_NCLEGEND-1-2
  2
FIGURE_CIRCLE
 10
124.100000
 20
40.500000
 41
3.500000
 42
3.500000
 50
0.000000
  0
TEXT
  8
MA_NCLEGEND-1-2
 10
122.933333
 20
39.625000
 11
124.100000
 21
40.500000
 40
1.750000
 41
1.000000
 50
0.000000
  7
STANDARD
 71
0
 72
1
  1
B
 73
2
  0
CIRCLE
  8
PIN_TOP
 10
124.100000
 20
4.500000
 40
1.750000
  0
CIRCLE
  8
PIN_SOLDERMASK_TOP
 10
124.100000
 20
4.500000
 40
1.800000
  0
INSERT
  8
MA_NCLEGEND-1-2
  2
FIGURE_CIRCLE
 10
124.100000
 20
4.500000
 41
3.500000
 42
3.500000
 50
0.000000
  0
TEXT
  8
MA_NCLEGEND-1-2
 10
122.933333
 20
3.625000
 11
124.100000
 21
4.500000
 40
1.750000
 41
1.000000
 50
0.000000
  7
STANDARD
 71
0
 72
1
  1
B
 73
2
  0
CIRCLE
  8
PIN_TOP
 10
73.300000
 20
4.500000
 40
1.750000
  0
CIRCLE
  8
PIN_SOLDERMASK_TOP
 10
73.300000
 20
4.500000
 40
1.800000
  0
INSERT
  8
MA_NCLEGEND-1-2
  2
FIGURE_CIRCLE
 10
73.300000
 20
4.500000
 41
3.500000
 42
3.500000
 50
0.000000
  0
TEXT
  8
MA_NCLEGEND-1-2
 10
72.133333
 20
3.625000
 11
73.300000
 21
4.500000
 40
1.750000
 41
1.000000
 50
0.000000
  7
STANDARD
 71
0
 72
1
  1
B
 73
2
  0
CIRCLE
  8
PIN_TOP
 10
73.300000
 20
40.500000
 40
1.750000
  0
CIRCLE
  8
PIN_SOLDERMASK_TOP
 10
73.300000
 20
40.500000
 40
1.800000
  0
INSERT
  8
MA_NCLEGEND-1-2
  2
FIGURE_CIRCLE
 10
73.300000
 20
40.500000
 41
3.500000
 42
3.500000
 50
0.000000
  0
TEXT
  8
MA_NCLEGEND-1-2
 10
72.133333
 20
39.625000
 11
73.300000
 21
40.500000
 40
1.750000
 41
1.000000
 50
0.000000
  7
STANDARD
 71
0
 72
1
  1
B
 73
2
  0
CIRCLE
  8
PIN_TOP
 10
73.300000
 20
22.500000
 40
1.750000
  0
CIRCLE
  8
PIN_SOLDERMASK_TOP
 10
73.300000
 20
22.500000
 40
1.800000
  0
INSERT
  8
MA_NCLEGEND-1-2
  2
FIGURE_CIRCLE
 10
73.300000
 20
22.500000
 41
3.500000
 42
3.500000
 50
0.000000
  0
TEXT
  8
MA_NCLEGEND-1-2
 10
72.133333
 20
21.625000
 11
73.300000
 21
22.500000
 40
1.750000
 41
1.000000
 50
0.000000
  7
STANDARD
 71
0
 72
1
  1
B
 73
2
  0
CIRCLE
  8
PIN_TOP
 10
22.500000
 20
4.500000
 40
1.750000
  0
CIRCLE
  8
PIN_SOLDERMASK_TOP
 10
22.500000
 20
4.500000
 40
1.800000
  0
INSERT
  8
MA_NCLEGEND-1-2
  2
FIGURE_CIRCLE
 10
22.500000
 20
4.500000
 41
3.500000
 42
3.500000
 50
0.000000
  0
TEXT
  8
MA_NCLEGEND-1-2
 10
21.333333
 20
3.625000
 11
22.500000
 21
4.500000
 40
1.750000
 41
1.000000
 50
0.000000
  7
STANDARD
 71
0
 72
1
  1
B
 73
2
  0
CIRCLE
  8
PIN_TOP
 10
22.500000
 20
40.500000
 40
1.750000
  0
CIRCLE
  8
PIN_SOLDERMASK_TOP
 10
22.500000
 20
40.500000
 40
1.800000
  0
INSERT
  8
MA_NCLEGEND-1-2
  2
FIGURE_CIRCLE
 10
22.500000
 20
40.500000
 41
3.500000
 42
3.500000
 50
0.000000
  0
TEXT
  8
MA_NCLEGEND-1-2
 10
21.333333
 20
39.625000
 11
22.500000
 21
40.500000
 40
1.750000
 41
1.000000
 50
0.000000
  7
STANDARD
 71
0
 72
1
  1
B
 73
2
  0
CIRCLE
  8
PIN_TOP
 10
98.700000
 20
22.500000
 40
1.700000
  0
CIRCLE
  8
PIN_SOLDERMASK_TOP
 10
98.700000
 20
22.500000
 40
1.750000
  0
INSERT
  8
MA_NCLEGEND-1-2
  2
FIGURE_CIRCLE
 10
98.700000
 20
22.500000
 41
3.400000
 42
3.400000
 50
0.000000
  0
TEXT
  8
MA_NCLEGEND-1-2
 10
97.566667
 20
21.650000
 11
98.700000
 21
22.500000
 40
1.700000
 41
1.000000
 50
0.000000
  7
STANDARD
 71
0
 72
1
  1
A
 73
2
  0
CIRCLE
  8
PIN_TOP
 10
47.900000
 20
22.500000
 40
1.700000
  0
CIRCLE
  8
PIN_SOLDERMASK_TOP
 10
47.900000
 20
22.500000
 40
1.750000
  0
INSERT
  8
MA_NCLEGEND-1-2
  2
FIGURE_CIRCLE
 10
47.900000
 20
22.500000
 41
3.400000
 42
3.400000
 50
0.000000
  0
TEXT
  8
MA_NCLEGEND-1-2
 10
46.766667
 20
21.650000
 11
47.900000
 21
22.500000
 40
1.700000
 41
1.000000
 50
0.000000
  7
STANDARD
 71
0
 72
1
  1
A
 73
2
  0
POLYLINE
  8
PIN_TOP
 66
1
 70
1
 40
0.000000
 41
0.000000
 39
0.000000
  0
VERTEX
  8
PIN_TOP
 10
9.600000
 20
32.985000
 40
0.000000
 41
0.000000
 42
0.000000
  0
VERTEX
  8
PIN_TOP
 10
7.900000
 20
32.985000
 40
0.000000
 41
0.000000
 42
0.000000
  0
VERTEX
  8
PIN_TOP
 10
7.900000
 20
32.415000
 40
0.000000
 41
0.000000
 42
0.000000
  0
VERTEX
  8
PIN_TOP
 10
7.100000
 20
32.415000
 40
0.000000
 41
0.000000
 42
0.000000
  0
VERTEX
  8
PIN_TOP
 10
7.100000
 20
32.985000
 40
0.000000
 41
0.000000
 42
0.000000
  0
VERTEX
  8
PIN_TOP
 10
7.500000
 20
32.985000
 40
0.000000
 41
0.000000
 42
0.000000
  0
VERTEX
  8
PIN_TOP
 10
7.500000
 20
37.415000
 40
0.000000
 41
0.000000
 42
0.000000
  0
VERTEX
  8
PIN_TOP
 10
7.100000
 20
37.415000
 40
0.000000
 41
0.000000
 42
0.000000
  0
VERTEX
  8
PIN_TOP
 10
7.100000
 20
37.985000
 40
0.000000
 41
0.000000
 42
0.000000
  0
VERTEX
  8
PIN_TOP
 10
7.900000
 20
37.985000
 40
0.000000
 41
0.000000
 42
0.000000
  0
VERTEX
  8
PIN_TOP
 10
7.900000
 20
37.415000
 40
0.000000
 41
0.000000
 42
0.000000
  0
VERTEX
  8
PIN_TOP
 10
9.600000
 20
37.415000
 40
0.000000
 41
0.000000
 42
0.000000
  0
VERTEX
  8
PIN_TOP
 10
9.600000
 20
35.200000
 40
0.000000
 41
0.000000
 42
0.000000
  0
SEQEND
  0
POLYLINE
  8
PIN_SOLDERMASK_TOP
 66
1
 70
1
 40
0.000000
 41
0.000000
 39
0.000000
  0
VERTEX
  8
PIN_SOLDERMASK_TOP
 10
9.600000
 20
32.985000
 40
0.000000
 41
0.000000
 42
0.000000
  0
VERTEX
  8
PIN_SOLDERMASK_TOP
 10
7.900000
 20
32.985000
 40
0.000000
 41
0.000000
 42
0.000000
  0
VERTEX
  8
PIN_SOLDERMASK_TOP
 10
7.900000
 20
32.415000
 40
0.000000
 41
0.000000
 42
0.000000
  0
VERTEX
  8
PIN_SOLDERMASK_TOP
 10
7.100000
 20
32.415000
 40
0.000000
 41
0.000000
 42
0.000000
  0
VERTEX
  8
PIN_SOLDERMASK_TOP
 10
7.100000
 20
32.985000
 40
0.000000
 41
0.000000
 42
0.000000
  0
VERTEX
  8
PIN_SOLDERMASK_TOP
 10
7.500000
 20
32.985000
 40
0.000000
 41
0.000000
 42
0.000000
  0
VERTEX
  8
PIN_SOLDERMASK_TOP
 10
7.500000
 20
37.415000
 40
0.000000
 41
0.000000
 42
0.000000
  0
VERTEX
  8
PIN_SOLDERMASK_TOP
 10
7.100000
 20
37.415000
 40
0.000000
 41
0.000000
 42
0.000000
  0
VERTEX
  8
PIN_SOLDERMASK_TOP
 10
7.100000
 20
37.985000
 40
0.000000
 41
0.000000
 42
0.000000
  0
VERTEX
  8
PIN_SOLDERMASK_TOP
 10
7.900000
 20
37.985000
 40
0.000000
 41
0.000000
 42
0.000000
  0
VERTEX
  8
PIN_SOLDERMASK_TOP
 10
7.900000
 20
37.415000
 40
0.000000
 41
0.000000
 42
0.000000
  0
VERTEX
  8
PIN_SOLDERMASK_TOP
 10
9.600000
 20
37.415000
 40
0.000000
 41
0.000000
 42
0.000000
  0
VERTEX
  8
PIN_SOLDERMASK_TOP
 10
9.600000
 20
35.200000
 40
0.000000
 41
0.000000
 42
0.000000
  0
SEQEND
  0
POLYLINE
  8
PIN_TOP
 66
1
 70
1
 40
0.000000
 41
0.000000
 39
0.000000
  0
VERTEX
  8
PIN_TOP
 10
10.000000
 20
37.415000
 40
0.000000
 41
0.000000
 42
0.000000
  0
VERTEX
  8
PIN_TOP
 10
11.700000
 20
37.415000
 40
0.000000
 41
0.000000
 42
0.000000
  0
VERTEX
  8
PIN_TOP
 10
11.700000
 20
37.985000
 40
0.000000
 41
0.000000
 42
0.000000
  0
VERTEX
  8
PIN_TOP
 10
12.500000
 20
37.985000
 40
0.000000
 41
0.000000
 42
0.000000
  0
VERTEX
  8
PIN_TOP
 10
12.500000
 20
37.415000
 40
0.000000
 41
0.000000
 42
0.000000
  0
VERTEX
  8
PIN_TOP
 10
12.100000
 20
37.415000
 40
0.000000
 41
0.000000
 42
0.000000
  0
VERTEX
  8
PIN_TOP
 10
12.100000
 20
32.985000
 40
0.000000
 41
0.000000
 42
0.000000
  0
VERTEX
  8
PIN_TOP
 10
12.500000
 20
32.985000
 40
0.000000
 41
0.000000
 42
0.000000
  0
VERTEX
  8
PIN_TOP
 10
12.500000
 20
32.415000
 40
0.000000
 41
0.000000
 42
0.000000
  0
VERTEX
  8
PIN_TOP
 10
11.700000
 20
32.415000
 40
0.000000
 41
0.000000
 42
0.000000
  0
VERTEX
  8
PIN_TOP
 10
11.700000
 20
32.985000
 40
0.000000
 41
0.000000
 42
0.000000
  0
VERTEX
  8
PIN_TOP
 10
10.000000
 20
32.985000
 40
0.000000
 41
0.000000
 42
0.000000
  0
VERTEX
  8
PIN_TOP
 10
10.000000
 20
35.200000
 40
0.000000
 41
0.000000
 42
0.000000
  0
SEQEND
  0
POLYLINE
  8
PIN_SOLDERMASK_TOP
 66
1
 70
1
 40
0.000000
 41
0.000000
 39
0.000000
  0
VERTEX
  8
PIN_SOLDERMASK_TOP
 10
10.000000
 20
37.415000
 40
0.000000
 41
0.000000
 42
0.000000
  0
VERTEX
  8
PIN_SOLDERMASK_TOP
 10
11.700000
 20
37.415000
 40
0.000000
 41
0.000000
 42
0.000000
  0
VERTEX
  8
PIN_SOLDERMASK_TOP
 10
11.700000
 20
37.985000
 40
0.000000
 41
0.000000
 42
0.000000
  0
VERTEX
  8
PIN_SOLDERMASK_TOP
 10
12.500000
 20
37.985000
 40
0.000000
 41
0.000000
 42
0.000000
  0
VERTEX
  8
PIN_SOLDERMASK_TOP
 10
12.500000
 20
37.415000
 40
0.000000
 41
0.000000
 42
0.000000
  0
VERTEX
  8
PIN_SOLDERMASK_TOP
 10
12.100000
 20
37.415000
 40
0.000000
 41
0.000000
 42
0.000000
  0
VERTEX
  8
PIN_SOLDERMASK_TOP
 10
12.100000
 20
32.985000
 40
0.000000
 41
0.000000
 42
0.000000
  0
VERTEX
  8
PIN_SOLDERMASK_TOP
 10
12.500000
 20
32.985000
 40
0.000000
 41
0.000000
 42
0.000000
  0
VERTEX
  8
PIN_SOLDERMASK_TOP
 10
12.500000
 20
32.415000
 40
0.000000
 41
0.000000
 42
0.000000
  0
VERTEX
  8
PIN_SOLDERMASK_TOP
 10
11.700000
 20
32.415000
 40
0.000000
 41
0.000000
 42
0.000000
  0
VERTEX
  8
PIN_SOLDERMASK_TOP
 10
11.700000
 20
32.985000
 40
0.000000
 41
0.000000
 42
0.000000
  0
VERTEX
  8
PIN_SOLDERMASK_TOP
 10
10.000000
 20
32.985000
 40
0.000000
 41
0.000000
 42
0.000000
  0
VERTEX
  8
PIN_SOLDERMASK_TOP
 10
10.000000
 20
35.200000
 40
0.000000
 41
0.000000
 42
0.000000
  0
SEQEND
  0
POLYLINE
  8
PG_SOLDERMASK_TOP
 66
1
 70
1
 40
0.000000
 41
0.000000
 39
0.000000
  0
VERTEX
  8
PG_SOLDERMASK_TOP
 10
15.900000
 20
35.200000
 40
0.000000
 41
0.000000
 42
1.000000
  0
VERTEX
  8
PG_SOLDERMASK_TOP
 10
15.099986
 20
35.200018
 40
0.000000
 41
0.000000
 42
1.000000
  0
SEQEND
  0
POLYLINE
  8
PG_SOLDERMASK_TOP
 66
1
 70
1
 40
0.000000
 41
0.000000
 39
0.000000
  0
VERTEX
  8
PG_SOLDERMASK_TOP
 10
4.500000
 20
35.200000
 40
0.000000
 41
0.000000
 42
1.000000
  0
VERTEX
  8
PG_SOLDERMASK_TOP
 10
3.699986
 20
35.200018
 40
0.000000
 41
0.000000
 42
1.000000
  0
SEQEND
  0
TEXT
  8
RD_SILKSCREEN_TOP
 10
8.500000
 20
38.750000
 11
0.000000
 21
0.000000
 40
0.800000
 41
1.250000
 50
0.000000
  7
STANDARD
 71
0
 72
0
  1
L01
 73
0
  0
POLYLINE
  8
PIN_TOP
 66
1
 70
1
 40
0.000000
 41
0.000000
 39
0.000000
  0
VERTEX
  8
PIN_TOP
 10
9.600000
 20
7.585000
 40
0.000000
 41
0.000000
 42
0.000000
  0
VERTEX
  8
PIN_TOP
 10
7.900000
 20
7.585000
 40
0.000000
 41
0.000000
 42
0.000000
  0
VERTEX
  8
PIN_TOP
 10
7.900000
 20
7.015000
 40
0.000000
 41
0.000000
 42
0.000000
  0
VERTEX
  8
PIN_TOP
 10
7.100000
 20
7.015000
 40
0.000000
 41
0.000000
 42
0.000000
  0
VERTEX
  8
PIN_TOP
 10
7.100000
 20
7.585000
 40
0.000000
 41
0.000000
 42
0.000000
  0
VERTEX
  8
PIN_TOP
 10
7.500000
 20
7.585000
 40
0.000000
 41
0.000000
 42
0.000000
  0
VERTEX
  8
PIN_TOP
 10
7.500000
 20
12.015000
 40
0.000000
 41
0.000000
 42
0.000000
  0
VERTEX
  8
PIN_TOP
 10
7.100000
 20
12.015000
 40
0.000000
 41
0.000000
 42
0.000000
  0
VERTEX
  8
PIN_TOP
 10
7.100000
 20
12.585000
 40
0.000000
 41
0.000000
 42
0.000000
  0
VERTEX
  8
PIN_TOP
 10
7.900000
 20
12.585000
 40
0.000000
 41
0.000000
 42
0.000000
  0
VERTEX
  8
PIN_TOP
 10
7.900000
 20
12.015000
 40
0.000000
 41
0.000000
 42
0.000000
  0
VERTEX
  8
PIN_TOP
 10
9.600000
 20
12.015000
 40
0.000000
 41
0.000000
 42
0.000000
  0
VERTEX
  8
PIN_TOP
 10
9.600000
 20
9.800000
 40
0.000000
 41
0.000000
 42
0.000000
  0
SEQEND
  0
POLYLINE
  8
PIN_SOLDERMASK_TOP
 66
1
 70
1
 40
0.000000
 41
0.000000
 39
0.000000
  0
VERTEX
  8
PIN_SOLDERMASK_TOP
 10
9.600000
 20
7.585000
 40
0.000000
 41
0.000000
 42
0.000000
  0
VERTEX
  8
PIN_SOLDERMASK_TOP
 10
7.900000
 20
7.585000
 40
0.000000
 41
0.000000
 42
0.000000
  0
VERTEX
  8
PIN_SOLDERMASK_TOP
 10
7.900000
 20
7.015000
 40
0.000000
 41
0.000000
 42
0.000000
  0
VERTEX
  8
PIN_SOLDERMASK_TOP
 10
7.100000
 20
7.015000
 40
0.000000
 41
0.000000
 42
0.000000
  0
VERTEX
  8
PIN_SOLDERMASK_TOP
 10
7.100000
 20
7.585000
 40
0.000000
 41
0.000000
 42
0.000000
  0
VERTEX
  8
PIN_SOLDERMASK_TOP
 10
7.500000
 20
7.585000
 40
0.000000
 41
0.000000
 42
0.000000
  0
VERTEX
  8
PIN_SOLDERMASK_TOP
 10
7.500000
 20
12.015000
 40
0.000000
 41
0.000000
 42
0.000000
  0
VERTEX
  8
PIN_SOLDERMASK_TOP
 10
7.100000
 20
12.015000
 40
0.000000
 41
0.000000
 42
0.000000
  0
VERTEX
  8
PIN_SOLDERMASK_TOP
 10
7.100000
 20
12.585000
 40
0.000000
 41
0.000000
 42
0.000000
  0
VERTEX
  8
PIN_SOLDERMASK_TOP
 10
7.900000
 20
12.585000
 40
0.000000
 41
0.000000
 42
0.000000
  0
VERTEX
  8
PIN_SOLDERMASK_TOP
 10
7.900000
 20
12.015000
 40
0.000000
 41
0.000000
 42
0.000000
  0
VERTEX
  8
PIN_SOLDERMASK_TOP
 10
9.600000
 20
12.015000
 40
0.000000
 41
0.000000
 42
0.000000
  0
VERTEX
  8
PIN_SOLDERMASK_TOP
 10
9.600000
 20
9.800000
 40
0.000000
 41
0.000000
 42
0.000000
  0
SEQEND
  0
POLYLINE
  8
PIN_TOP
 66
1
 70
1
 40
0.000000
 41
0.000000
 39
0.000000
  0
VERTEX
  8
PIN_TOP
 10
10.000000
 20
12.015000
 40
0.000000
 41
0.000000
 42
0.000000
  0
VERTEX
  8
PIN_TOP
 10
11.700000
 20
12.015000
 40
0.000000
 41
0.000000
 42
0.000000
  0
VERTEX
  8
PIN_TOP
 10
11.700000
 20
12.585000
 40
0.000000
 41
0.000000
 42
0.000000
  0
VERTEX
  8
PIN_TOP
 10
12.500000
 20
12.585000
 40
0.000000
 41
0.000000
 42
0.000000
  0
VERTEX
  8
PIN_TOP
 10
12.500000
 20
12.015000
 40
0.000000
 41
0.000000
 42
0.000000
  0
VERTEX
  8
PIN_TOP
 10
12.100000
 20
12.015000
 40
0.000000
 41
0.000000
 42
0.000000
  0
VERTEX
  8
PIN_TOP
 10
12.100000
 20
7.585000
 40
0.000000
 41
0.000000
 42
0.000000
  0
VERTEX
  8
PIN_TOP
 10
12.500000
 20
7.585000
 40
0.000000
 41
0.000000
 42
0.000000
  0
VERTEX
  8
PIN_TOP
 10
12.500000
 20
7.015000
 40
0.000000
 41
0.000000
 42
0.000000
  0
VERTEX
  8
PIN_TOP
 10
11.700000
 20
7.015000
 40
0.000000
 41
0.000000
 42
0.000000
  0
VERTEX
  8
PIN_TOP
 10
11.700000
 20
7.585000
 40
0.000000
 41
0.000000
 42
0.000000
  0
VERTEX
  8
PIN_TOP
 10
10.000000
 20
7.585000
 40
0.000000
 41
0.000000
 42
0.000000
  0
VERTEX
  8
PIN_TOP
 10
10.000000
 20
9.800000
 40
0.000000
 41
0.000000
 42
0.000000
  0
SEQEND
  0
POLYLINE
  8
PIN_SOLDERMASK_TOP
 66
1
 70
1
 40
0.000000
 41
0.000000
 39
0.000000
  0
VERTEX
  8
PIN_SOLDERMASK_TOP
 10
10.000000
 20
12.015000
 40
0.000000
 41
0.000000
 42
0.000000
  0
VERTEX
  8
PIN_SOLDERMASK_TOP
 10
11.700000
 20
12.015000
 40
0.000000
 41
0.000000
 42
0.000000
  0
VERTEX
  8
PIN_SOLDERMASK_TOP
 10
11.700000
 20
12.585000
 40
0.000000
 41
0.000000
 42
0.000000
  0
VERTEX
  8
PIN_SOLDERMASK_TOP
 10
12.500000
 20
12.585000
 40
0.000000
 41
0.000000
 42
0.000000
  0
VERTEX
  8
PIN_SOLDERMASK_TOP
 10
12.500000
 20
12.015000
 40
0.000000
 41
0.000000
 42
0.000000
  0
VERTEX
  8
PIN_SOLDERMASK_TOP
 10
12.100000
 20
12.015000
 40
0.000000
 41
0.000000
 42
0.000000
  0
VERTEX
  8
PIN_SOLDERMASK_TOP
 10
12.100000
 20
7.585000
 40
0.000000
 41
0.000000
 42
0.000000
  0
VERTEX
  8
PIN_SOLDERMASK_TOP
 10
12.500000
 20
7.585000
 40
0.000000
 41
0.000000
 42
0.000000
  0
VERTEX
  8
PIN_SOLDERMASK_TOP
 10
12.500000
 20
7.015000
 40
0.000000
 41
0.000000
 42
0.000000
  0
VERTEX
  8
PIN_SOLDERMASK_TOP
 10
11.700000
 20
7.015000
 40
0.000000
 41
0.000000
 42
0.000000
  0
VERTEX
  8
PIN_SOLDERMASK_TOP
 10
11.700000
 20
7.585000
 40
0.000000
 41
0.000000
 42
0.000000
  0
VERTEX
  8
PIN_SOLDERMASK_TOP
 10
10.000000
 20
7.585000
 40
0.000000
 41
0.000000
 42
0.000000
  0
VERTEX
  8
PIN_SOLDERMASK_TOP
 10
10.000000
 20
9.800000
 40
0.000000
 41
0.000000
 42
0.000000
  0
SEQEND
  0
POLYLINE
  8
PG_SOLDERMASK_TOP
 66
1
 70
1
 40
0.000000
 41
0.000000
 39
0.000000
  0
VERTEX
  8
PG_SOLDERMASK_TOP
 10
15.900000
 20
9.800000
 40
0.000000
 41
0.000000
 42
1.000000
  0
VERTEX
  8
PG_SOLDERMASK_TOP
 10
15.099986
 20
9.800018
 40
0.000000
 41
0.000000
 42
1.000000
  0
SEQEND
  0
POLYLINE
  8
PG_SOLDERMASK_TOP
 66
1
 70
1
 40
0.000000
 41
0.000000
 39
0.000000
  0
VERTEX
  8
PG_SOLDERMASK_TOP
 10
4.500000
 20
9.800000
 40
0.000000
 41
0.000000
 42
1.000000
  0
VERTEX
  8
PG_SOLDERMASK_TOP
 10
3.699986
 20
9.800018
 40
0.000000
 41
0.000000
 42
1.000000
  0
SEQEND
  0
TEXT
  8
RD_SILKSCREEN_TOP
 10
8.250000
 20
13.250000
 11
0.000000
 21
0.000000
 40
0.800000
 41
1.250000
 50
0.000000
  7
STANDARD
 71
0
 72
0
  1
L02
 73
0
  0
POLYLINE
  8
PIN_TOP
 66
1
 70
1
 40
0.000000
 41
0.000000
 39
0.000000
  0
VERTEX
  8
PIN_TOP
 10
35.000000
 20
32.985000
 40
0.000000
 41
0.000000
 42
0.000000
  0
VERTEX
  8
PIN_TOP
 10
33.300000
 20
32.985000
 40
0.000000
 41
0.000000
 42
0.000000
  0
VERTEX
  8
PIN_TOP
 10
33.300000
 20
32.415000
 40
0.000000
 41
0.000000
 42
0.000000
  0
VERTEX
  8
PIN_TOP
 10
32.500000
 20
32.415000
 40
0.000000
 41
0.000000
 42
0.000000
  0
VERTEX
  8
PIN_TOP
 10
32.500000
 20
32.985000
 40
0.000000
 41
0.000000
 42
0.000000
  0
VERTEX
  8
PIN_TOP
 10
32.900000
 20
32.985000
 40
0.000000
 41
0.000000
 42
0.000000
  0
VERTEX
  8
PIN_TOP
 10
32.900000
 20
37.415000
 40
0.000000
 41
0.000000
 42
0.000000
  0
VERTEX
  8
PIN_TOP
 10
32.500000
 20
37.415000
 40
0.000000
 41
0.000000
 42
0.000000
  0
VERTEX
  8
PIN_TOP
 10
32.500000
 20
37.985000
 40
0.000000
 41
0.000000
 42
0.000000
  0
VERTEX
  8
PIN_TOP
 10
33.300000
 20
37.985000
 40
0.000000
 41
0.000000
 42
0.000000
  0
VERTEX
  8
PIN_TOP
 10
33.300000
 20
37.415000
 40
0.000000
 41
0.000000
 42
0.000000
  0
VERTEX
  8
PIN_TOP
 10
35.000000
 20
37.415000
 40
0.000000
 41
0.000000
 42
0.000000
  0
VERTEX
  8
PIN_TOP
 10
35.000000
 20
35.200000
 40
0.000000
 41
0.000000
 42
0.000000
  0
SEQEND
  0
POLYLINE
  8
PIN_SOLDERMASK_TOP
 66
1
 70
1
 40
0.000000
 41
0.000000
 39
0.000000
  0
VERTEX
  8
PIN_SOLDERMASK_TOP
 10
35.000000
 20
32.985000
 40
0.000000
 41
0.000000
 42
0.000000
  0
VERTEX
  8
PIN_SOLDERMASK_TOP
 10
33.300000
 20
32.985000
 40
0.000000
 41
0.000000
 42
0.000000
  0
VERTEX
  8
PIN_SOLDERMASK_TOP
 10
33.300000
 20
32.415000
 40
0.000000
 41
0.000000
 42
0.000000
  0
VERTEX
  8
PIN_SOLDERMASK_TOP
 10
32.500000
 20
32.415000
 40
0.000000
 41
0.000000
 42
0.000000
  0
VERTEX
  8
PIN_SOLDERMASK_TOP
 10
32.500000
 20
32.985000
 40
0.000000
 41
0.000000
 42
0.000000
  0
VERTEX
  8
PIN_SOLDERMASK_TOP
 10
32.900000
 20
32.985000
 40
0.000000
 41
0.000000
 42
0.000000
  0
VERTEX
  8
PIN_SOLDERMASK_TOP
 10
32.900000
 20
37.415000
 40
0.000000
 41
0.000000
 42
0.000000
  0
VERTEX
  8
PIN_SOLDERMASK_TOP
 10
32.500000
 20
37.415000
 40
0.000000
 41
0.000000
 42
0.000000
  0
VERTEX
  8
PIN_SOLDERMASK_TOP
 10
32.500000
 20
37.985000
 40
0.000000
 41
0.000000
 42
0.000000
  0
VERTEX
  8
PIN_SOLDERMASK_TOP
 10
33.300000
 20
37.985000
 40
0.000000
 41
0.000000
 42
0.000000
  0
VERTEX
  8
PIN_SOLDERMASK_TOP
 10
33.300000
 20
37.415000
 40
0.000000
 41
0.000000
 42
0.000000
  0
VERTEX
  8
PIN_SOLDERMASK_TOP
 10
35.000000
 20
37.415000
 40
0.000000
 41
0.000000
 42
0.000000
  0
VERTEX
  8
PIN_SOLDERMASK_TOP
 10
35.000000
 20
35.200000
 40
0.000000
 41
0.000000
 42
0.000000
  0
SEQEND
  0
POLYLINE
  8
PIN_TOP
 66
1
 70
1
 40
0.000000
 41
0.000000
 39
0.000000
  0
VERTEX
  8
PIN_TOP
 10
35.400000
 20
37.415000
 40
0.000000
 41
0.000000
 42
0.000000
  0
VERTEX
  8
PIN_TOP
 10
37.100000
 20
37.415000
 40
0.000000
 41
0.000000
 42
0.000000
  0
VERTEX
  8
PIN_TOP
 10
37.100000
 20
37.985000
 40
0.000000
 41
0.000000
 42
0.000000
  0
VERTEX
  8
PIN_TOP
 10
37.900000
 20
37.985000
 40
0.000000
 41
0.000000
 42
0.000000
  0
VERTEX
  8
PIN_TOP
 10
37.900000
 20
37.415000
 40
0.000000
 41
0.000000
 42
0.000000
  0
VERTEX
  8
PIN_TOP
 10
37.500000
 20
37.415000
 40
0.000000
 41
0.000000
 42
0.000000
  0
VERTEX
  8
PIN_TOP
 10
37.500000
 20
32.985000
 40
0.000000
 41
0.000000
 42
0.000000
  0
VERTEX
  8
PIN_TOP
 10
37.900000
 20
32.985000
 40
0.000000
 41
0.000000
 42
0.000000
  0
VERTEX
  8
PIN_TOP
 10
37.900000
 20
32.415000
 40
0.000000
 41
0.000000
 42
0.000000
  0
VERTEX
  8
PIN_TOP
 10
37.100000
 20
32.415000
 40
0.000000
 41
0.000000
 42
0.000000
  0
VERTEX
  8
PIN_TOP
 10
37.100000
 20
32.985000
 40
0.000000
 41
0.000000
 42
0.000000
  0
VERTEX
  8
PIN_TOP
 10
35.400000
 20
32.985000
 40
0.000000
 41
0.000000
 42
0.000000
  0
VERTEX
  8
PIN_TOP
 10
35.400000
 20
35.200000
 40
0.000000
 41
0.000000
 42
0.000000
  0
SEQEND
  0
POLYLINE
  8
PIN_SOLDERMASK_TOP
 66
1
 70
1
 40
0.000000
 41
0.000000
 39
0.000000
  0
VERTEX
  8
PIN_SOLDERMASK_TOP
 10
35.400000
 20
37.415000
 40
0.000000
 41
0.000000
 42
0.000000
  0
VERTEX
  8
PIN_SOLDERMASK_TOP
 10
37.100000
 20
37.415000
 40
0.000000
 41
0.000000
 42
0.000000
  0
VERTEX
  8
PIN_SOLDERMASK_TOP
 10
37.100000
 20
37.985000
 40
0.000000
 41
0.000000
 42
0.000000
  0
VERTEX
  8
PIN_SOLDERMASK_TOP
 10
37.900000
 20
37.985000
 40
0.000000
 41
0.000000
 42
0.000000
  0
VERTEX
  8
PIN_SOLDERMASK_TOP
 10
37.900000
 20
37.415000
 40
0.000000
 41
0.000000
 42
0.000000
  0
VERTEX
  8
PIN_SOLDERMASK_TOP
 10
37.500000
 20
37.415000
 40
0.000000
 41
0.000000
 42
0.000000
  0
VERTEX
  8
PIN_SOLDERMASK_TOP
 10
37.500000
 20
32.985000
 40
0.000000
 41
0.000000
 42
0.000000
  0
VERTEX
  8
PIN_SOLDERMASK_TOP
 10
37.900000
 20
32.985000
 40
0.000000
 41
0.000000
 42
0.000000
  0
VERTEX
  8
PIN_SOLDERMASK_TOP
 10
37.900000
 20
32.415000
 40
0.000000
 41
0.000000
 42
0.000000
  0
VERTEX
  8
PIN_SOLDERMASK_TOP
 10
37.100000
 20
32.415000
 40
0.000000
 41
0.000000
 42
0.000000
  0
VERTEX
  8
PIN_SOLDERMASK_TOP
 10
37.100000
 20
32.985000
 40
0.000000
 41
0.000000
 42
0.000000
  0
VERTEX
  8
PIN_SOLDERMASK_TOP
 10
35.400000
 20
32.985000
 40
0.000000
 41
0.000000
 42
0.000000
  0
VERTEX
  8
PIN_SOLDERMASK_TOP
 10
35.400000
 20
35.200000
 40
0.000000
 41
0.000000
 42
0.000000
  0
SEQEND
  0
POLYLINE
  8
PG_SOLDERMASK_TOP
 66
1
 70
1
 40
0.000000
 41
0.000000
 39
0.000000
  0
VERTEX
  8
PG_SOLDERMASK_TOP
 10
41.300000
 20
35.200000
 40
0.000000
 41
0.000000
 42
1.000000
  0
VERTEX
  8
PG_SOLDERMASK_TOP
 10
40.499986
 20
35.200018
 40
0.000000
 41
0.000000
 42
1.000000
  0
SEQEND
  0
POLYLINE
  8
PG_SOLDERMASK_TOP
 66
1
 70
1
 40
0.000000
 41
0.000000
 39
0.000000
  0
VERTEX
  8
PG_SOLDERMASK_TOP
 10
29.900000
 20
35.200000
 40
0.000000
 41
0.000000
 42
1.000000
  0
VERTEX
  8
PG_SOLDERMASK_TOP
 10
29.099986
 20
35.200018
 40
0.000000
 41
0.000000
 42
1.000000
  0
SEQEND
  0
TEXT
  8
RD_SILKSCREEN_TOP
 10
33.750000
 20
38.750000
 11
0.000000
 21
0.000000
 40
0.800000
 41
1.250000
 50
0.000000
  7
STANDARD
 71
0
 72
0
  1
L03
 73
0
  0
POLYLINE
  8
PIN_TOP
 66
1
 70
1
 40
0.000000
 41
0.000000
 39
0.000000
  0
VERTEX
  8
PIN_TOP
 10
35.000000
 20
7.585000
 40
0.000000
 41
0.000000
 42
0.000000
  0
VERTEX
  8
PIN_TOP
 10
33.300000
 20
7.585000
 40
0.000000
 41
0.000000
 42
0.000000
  0
VERTEX
  8
PIN_TOP
 10
33.300000
 20
7.015000
 40
0.000000
 41
0.000000
 42
0.000000
  0
VERTEX
  8
PIN_TOP
 10
32.500000
 20
7.015000
 40
0.000000
 41
0.000000
 42
0.000000
  0
VERTEX
  8
PIN_TOP
 10
32.500000
 20
7.585000
 40
0.000000
 41
0.000000
 42
0.000000
  0
VERTEX
  8
PIN_TOP
 10
32.900000
 20
7.585000
 40
0.000000
 41
0.000000
 42
0.000000
  0
VERTEX
  8
PIN_TOP
 10
32.900000
 20
12.015000
 40
0.000000
 41
0.000000
 42
0.000000
  0
VERTEX
  8
PIN_TOP
 10
32.500000
 20
12.015000
 40
0.000000
 41
0.000000
 42
0.000000
  0
VERTEX
  8
PIN_TOP
 10
32.500000
 20
12.585000
 40
0.000000
 41
0.000000
 42
0.000000
  0
VERTEX
  8
PIN_TOP
 10
33.300000
 20
12.585000
 40
0.000000
 41
0.000000
 42
0.000000
  0
VERTEX
  8
PIN_TOP
 10
33.300000
 20
12.015000
 40
0.000000
 41
0.000000
 42
0.000000
  0
VERTEX
  8
PIN_TOP
 10
35.000000
 20
12.015000
 40
0.000000
 41
0.000000
 42
0.000000
  0
VERTEX
  8
PIN_TOP
 10
35.000000
 20
9.800000
 40
0.000000
 41
0.000000
 42
0.000000
  0
SEQEND
  0
POLYLINE
  8
PIN_SOLDERMASK_TOP
 66
1
 70
1
 40
0.000000
 41
0.000000
 39
0.000000
  0
VERTEX
  8
PIN_SOLDERMASK_TOP
 10
35.000000
 20
7.585000
 40
0.000000
 41
0.000000
 42
0.000000
  0
VERTEX
  8
PIN_SOLDERMASK_TOP
 10
33.300000
 20
7.585000
 40
0.000000
 41
0.000000
 42
0.000000
  0
VERTEX
  8
PIN_SOLDERMASK_TOP
 10
33.300000
 20
7.015000
 40
0.000000
 41
0.000000
 42
0.000000
  0
VERTEX
  8
PIN_SOLDERMASK_TOP
 10
32.500000
 20
7.015000
 40
0.000000
 41
0.000000
 42
0.000000
  0
VERTEX
  8
PIN_SOLDERMASK_TOP
 10
32.500000
 20
7.585000
 40
0.000000
 41
0.000000
 42
0.000000
  0
VERTEX
  8
PIN_SOLDERMASK_TOP
 10
32.900000
 20
7.585000
 40
0.000000
 41
0.000000
 42
0.000000
  0
VERTEX
  8
PIN_SOLDERMASK_TOP
 10
32.900000
 20
12.015000
 40
0.000000
 41
0.000000
 42
0.000000
  0
VERTEX
  8
PIN_SOLDERMASK_TOP
 10
32.500000
 20
12.015000
 40
0.000000
 41
0.000000
 42
0.000000
  0
VERTEX
  8
PIN_SOLDERMASK_TOP
 10
32.500000
 20
12.585000
 40
0.000000
 41
0.000000
 42
0.000000
  0
VERTEX
  8
PIN_SOLDERMASK_TOP
 10
33.300000
 20
12.585000
 40
0.000000
 41
0.000000
 42
0.000000
  0
VERTEX
  8
PIN_SOLDERMASK_TOP
 10
33.300000
 20
12.015000
 40
0.000000
 41
0.000000
 42
0.000000
  0
VERTEX
  8
PIN_SOLDERMASK_TOP
 10
35.000000
 20
12.015000
 40
0.000000
 41
0.000000
 42
0.000000
  0
VERTEX
  8
PIN_SOLDERMASK_TOP
 10
35.000000
 20
9.800000
 40
0.000000
 41
0.000000
 42
0.000000
  0
SEQEND
  0
POLYLINE
  8
PIN_TOP
 66
1
 70
1
 40
0.000000
 41
0.000000
 39
0.000000
  0
VERTEX
  8
PIN_TOP
 10
35.400000
 20
12.015000
 40
0.000000
 41
0.000000
 42
0.000000
  0
VERTEX
  8
PIN_TOP
 10
37.100000
 20
12.015000
 40
0.000000
 41
0.000000
 42
0.000000
  0
VERTEX
  8
PIN_TOP
 10
37.100000
 20
12.585000
 40
0.000000
 41
0.000000
 42
0.000000
  0
VERTEX
  8
PIN_TOP
 10
37.900000
 20
12.585000
 40
0.000000
 41
0.000000
 42
0.000000
  0
VERTEX
  8
PIN_TOP
 10
37.900000
 20
12.015000
 40
0.000000
 41
0.000000
 42
0.000000
  0
VERTEX
  8
PIN_TOP
 10
37.500000
 20
12.015000
 40
0.000000
 41
0.000000
 42
0.000000
  0
VERTEX
  8
PIN_TOP
 10
37.500000
 20
7.585000
 40
0.000000
 41
0.000000
 42
0.000000
  0
VERTEX
  8
PIN_TOP
 10
37.900000
 20
7.585000
 40
0.000000
 41
0.000000
 42
0.000000
  0
VERTEX
  8
PIN_TOP
 10
37.900000
 20
7.015000
 40
0.000000
 41
0.000000
 42
0.000000
  0
VERTEX
  8
PIN_TOP
 10
37.100000
 20
7.015000
 40
0.000000
 41
0.000000
 42
0.000000
  0
VERTEX
  8
PIN_TOP
 10
37.100000
 20
7.585000
 40
0.000000
 41
0.000000
 42
0.000000
  0
VERTEX
  8
PIN_TOP
 10
35.400000
 20
7.585000
 40
0.000000
 41
0.000000
 42
0.000000
  0
VERTEX
  8
PIN_TOP
 10
35.400000
 20
9.800000
 40
0.000000
 41
0.000000
 42
0.000000
  0
SEQEND
  0
POLYLINE
  8
PIN_SOLDERMASK_TOP
 66
1
 70
1
 40
0.000000
 41
0.000000
 39
0.000000
  0
VERTEX
  8
PIN_SOLDERMASK_TOP
 10
35.400000
 20
12.015000
 40
0.000000
 41
0.000000
 42
0.000000
  0
VERTEX
  8
PIN_SOLDERMASK_TOP
 10
37.100000
 20
12.015000
 40
0.000000
 41
0.000000
 42
0.000000
  0
VERTEX
  8
PIN_SOLDERMASK_TOP
 10
37.100000
 20
12.585000
 40
0.000000
 41
0.000000
 42
0.000000
  0
VERTEX
  8
PIN_SOLDERMASK_TOP
 10
37.900000
 20
12.585000
 40
0.000000
 41
0.000000
 42
0.000000
  0
VERTEX
  8
PIN_SOLDERMASK_TOP
 10
37.900000
 20
12.015000
 40
0.000000
 41
0.000000
 42
0.000000
  0
VERTEX
  8
PIN_SOLDERMASK_TOP
 10
37.500000
 20
12.015000
 40
0.000000
 41
0.000000
 42
0.000000
  0
VERTEX
  8
PIN_SOLDERMASK_TOP
 10
37.500000
 20
7.585000
 40
0.000000
 41
0.000000
 42
0.000000
  0
VERTEX
  8
PIN_SOLDERMASK_TOP
 10
37.900000
 20
7.585000
 40
0.000000
 41
0.000000
 42
0.000000
  0
VERTEX
  8
PIN_SOLDERMASK_TOP
 10
37.900000
 20
7.015000
 40
0.000000
 41
0.000000
 42
0.000000
  0
VERTEX
  8
PIN_SOLDERMASK_TOP
 10
37.100000
 20
7.015000
 40
0.000000
 41
0.000000
 42
0.000000
  0
VERTEX
  8
PIN_SOLDERMASK_TOP
 10
37.100000
 20
7.585000
 40
0.000000
 41
0.000000
 42
0.000000
  0
VERTEX
  8
PIN_SOLDERMASK_TOP
 10
35.400000
 20
7.585000
 40
0.000000
 41
0.000000
 42
0.000000
  0
VERTEX
  8
PIN_SOLDERMASK_TOP
 10
35.400000
 20
9.800000
 40
0.000000
 41
0.000000
 42
0.000000
  0
SEQEND
  0
POLYLINE
  8
PG_SOLDERMASK_TOP
 66
1
 70
1
 40
0.000000
 41
0.000000
 39
0.000000
  0
VERTEX
  8
PG_SOLDERMASK_TOP
 10
41.300000
 20
9.800000
 40
0.000000
 41
0.000000
 42
1.000000
  0
VERTEX
  8
PG_SOLDERMASK_TOP
 10
40.499986
 20
9.800018
 40
0.000000
 41
0.000000
 42
1.000000
  0
SEQEND
  0
POLYLINE
  8
PG_SOLDERMASK_TOP
 66
1
 70
1
 40
0.000000
 41
0.000000
 39
0.000000
  0
VERTEX
  8
PG_SOLDERMASK_TOP
 10
29.900000
 20
9.800000
 40
0.000000
 41
0.000000
 42
1.000000
  0
VERTEX
  8
PG_SOLDERMASK_TOP
 10
29.099986
 20
9.800018
 40
0.000000
 41
0.000000
 42
1.000000
  0
SEQEND
  0
TEXT
  8
RD_SILKSCREEN_TOP
 10
33.750000
 20
13.250000
 11
0.000000
 21
0.000000
 40
0.800000
 41
1.250000
 50
0.000000
  7
STANDARD
 71
0
 72
0
  1
L04
 73
0
  0
POLYLINE
  8
PIN_TOP
 66
1
 70
1
 40
0.000000
 41
0.000000
 39
0.000000
  0
VERTEX
  8
PIN_TOP
 10
60.400000
 20
32.985000
 40
0.000000
 41
0.000000
 42
0.000000
  0
VERTEX
  8
PIN_TOP
 10
58.700000
 20
32.985000
 40
0.000000
 41
0.000000
 42
0.000000
  0
VERTEX
  8
PIN_TOP
 10
58.700000
 20
32.415000
 40
0.000000
 41
0.000000
 42
0.000000
  0
VERTEX
  8
PIN_TOP
 10
57.900000
 20
32.415000
 40
0.000000
 41
0.000000
 42
0.000000
  0
VERTEX
  8
PIN_TOP
 10
57.900000
 20
32.985000
 40
0.000000
 41
0.000000
 42
0.000000
  0
VERTEX
  8
PIN_TOP
 10
58.300000
 20
32.985000
 40
0.000000
 41
0.000000
 42
0.000000
  0
VERTEX
  8
PIN_TOP
 10
58.300000
 20
37.415000
 40
0.000000
 41
0.000000
 42
0.000000
  0
VERTEX
  8
PIN_TOP
 10
57.900000
 20
37.415000
 40
0.000000
 41
0.000000
 42
0.000000
  0
VERTEX
  8
PIN_TOP
 10
57.900000
 20
37.985000
 40
0.000000
 41
0.000000
 42
0.000000
  0
VERTEX
  8
PIN_TOP
 10
58.700000
 20
37.985000
 40
0.000000
 41
0.000000
 42
0.000000
  0
VERTEX
  8
PIN_TOP
 10
58.700000
 20
37.415000
 40
0.000000
 41
0.000000
 42
0.000000
  0
VERTEX
  8
PIN_TOP
 10
60.400000
 20
37.415000
 40
0.000000
 41
0.000000
 42
0.000000
  0
VERTEX
  8
PIN_TOP
 10
60.400000
 20
35.200000
 40
0.000000
 41
0.000000
 42
0.000000
  0
SEQEND
  0
POLYLINE
  8
PIN_SOLDERMASK_TOP
 66
1
 70
1
 40
0.000000
 41
0.000000
 39
0.000000
  0
VERTEX
  8
PIN_SOLDERMASK_TOP
 10
60.400000
 20
32.985000
 40
0.000000
 41
0.000000
 42
0.000000
  0
VERTEX
  8
PIN_SOLDERMASK_TOP
 10
58.700000
 20
32.985000
 40
0.000000
 41
0.000000
 42
0.000000
  0
VERTEX
  8
PIN_SOLDERMASK_TOP
 10
58.700000
 20
32.415000
 40
0.000000
 41
0.000000
 42
0.000000
  0
VERTEX
  8
PIN_SOLDERMASK_TOP
 10
57.900000
 20
32.415000
 40
0.000000
 41
0.000000
 42
0.000000
  0
VERTEX
  8
PIN_SOLDERMASK_TOP
 10
57.900000
 20
32.985000
 40
0.000000
 41
0.000000
 42
0.000000
  0
VERTEX
  8
PIN_SOLDERMASK_TOP
 10
58.300000
 20
32.985000
 40
0.000000
 41
0.000000
 42
0.000000
  0
VERTEX
  8
PIN_SOLDERMASK_TOP
 10
58.300000
 20
37.415000
 40
0.000000
 41
0.000000
 42
0.000000
  0
VERTEX
  8
PIN_SOLDERMASK_TOP
 10
57.900000
 20
37.415000
 40
0.000000
 41
0.000000
 42
0.000000
  0
VERTEX
  8
PIN_SOLDERMASK_TOP
 10
57.900000
 20
37.985000
 40
0.000000
 41
0.000000
 42
0.000000
  0
VERTEX
  8
PIN_SOLDERMASK_TOP
 10
58.700000
 20
37.985000
 40
0.000000
 41
0.000000
 42
0.000000
  0
VERTEX
  8
PIN_SOLDERMASK_TOP
 10
58.700000
 20
37.415000
 40
0.000000
 41
0.000000
 42
0.000000
  0
VERTEX
  8
PIN_SOLDERMASK_TOP
 10
60.400000
 20
37.415000
 40
0.000000
 41
0.000000
 42
0.000000
  0
VERTEX
  8
PIN_SOLDERMASK_TOP
 10
60.400000
 20
35.200000
 40
0.000000
 41
0.000000
 42
0.000000
  0
SEQEND
  0
POLYLINE
  8
PIN_TOP
 66
1
 70
1
 40
0.000000
 41
0.000000
 39
0.000000
  0
VERTEX
  8
PIN_TOP
 10
60.800000
 20
37.415000
 40
0.000000
 41
0.000000
 42
0.000000
  0
VERTEX
  8
PIN_TOP
 10
62.500000
 20
37.415000
 40
0.000000
 41
0.000000
 42
0.000000
  0
VERTEX
  8
PIN_TOP
 10
62.500000
 20
37.985000
 40
0.000000
 41
0.000000
 42
0.000000
  0
VERTEX
  8
PIN_TOP
 10
63.300000
 20
37.985000
 40
0.000000
 41
0.000000
 42
0.000000
  0
VERTEX
  8
PIN_TOP
 10
63.300000
 20
37.415000
 40
0.000000
 41
0.000000
 42
0.000000
  0
VERTEX
  8
PIN_TOP
 10
62.900000
 20
37.415000
 40
0.000000
 41
0.000000
 42
0.000000
  0
VERTEX
  8
PIN_TOP
 10
62.900000
 20
32.985000
 40
0.000000
 41
0.000000
 42
0.000000
  0
VERTEX
  8
PIN_TOP
 10
63.300000
 20
32.985000
 40
0.000000
 41
0.000000
 42
0.000000
  0
VERTEX
  8
PIN_TOP
 10
63.300000
 20
32.415000
 40
0.000000
 41
0.000000
 42
0.000000
  0
VERTEX
  8
PIN_TOP
 10
62.500000
 20
32.415000
 40
0.000000
 41
0.000000
 42
0.000000
  0
VERTEX
  8
PIN_TOP
 10
62.500000
 20
32.985000
 40
0.000000
 41
0.000000
 42
0.000000
  0
VERTEX
  8
PIN_TOP
 10
60.800000
 20
32.985000
 40
0.000000
 41
0.000000
 42
0.000000
  0
VERTEX
  8
PIN_TOP
 10
60.800000
 20
35.200000
 40
0.000000
 41
0.000000
 42
0.000000
  0
SEQEND
  0
POLYLINE
  8
PIN_SOLDERMASK_TOP
 66
1
 70
1
 40
0.000000
 41
0.000000
 39
0.000000
  0
VERTEX
  8
PIN_SOLDERMASK_TOP
 10
60.800000
 20
37.415000
 40
0.000000
 41
0.000000
 42
0.000000
  0
VERTEX
  8
PIN_SOLDERMASK_TOP
 10
62.500000
 20
37.415000
 40
0.000000
 41
0.000000
 42
0.000000
  0
VERTEX
  8
PIN_SOLDERMASK_TOP
 10
62.500000
 20
37.985000
 40
0.000000
 41
0.000000
 42
0.000000
  0
VERTEX
  8
PIN_SOLDERMASK_TOP
 10
63.300000
 20
37.985000
 40
0.000000
 41
0.000000
 42
0.000000
  0
VERTEX
  8
PIN_SOLDERMASK_TOP
 10
63.300000
 20
37.415000
 40
0.000000
 41
0.000000
 42
0.000000
  0
VERTEX
  8
PIN_SOLDERMASK_TOP
 10
62.900000
 20
37.415000
 40
0.000000
 41
0.000000
 42
0.000000
  0
VERTEX
  8
PIN_SOLDERMASK_TOP
 10
62.900000
 20
32.985000
 40
0.000000
 41
0.000000
 42
0.000000
  0
VERTEX
  8
PIN_SOLDERMASK_TOP
 10
63.300000
 20
32.985000
 40
0.000000
 41
0.000000
 42
0.000000
  0
VERTEX
  8
PIN_SOLDERMASK_TOP
 10
63.300000
 20
32.415000
 40
0.000000
 41
0.000000
 42
0.000000
  0
VERTEX
  8
PIN_SOLDERMASK_TOP
 10
62.500000
 20
32.415000
 40
0.000000
 41
0.000000
 42
0.000000
  0
VERTEX
  8
PIN_SOLDERMASK_TOP
 10
62.500000
 20
32.985000
 40
0.000000
 41
0.000000
 42
0.000000
  0
VERTEX
  8
PIN_SOLDERMASK_TOP
 10
60.800000
 20
32.985000
 40
0.000000
 41
0.000000
 42
0.000000
  0
VERTEX
  8
PIN_SOLDERMASK_TOP
 10
60.800000
 20
35.200000
 40
0.000000
 41
0.000000
 42
0.000000
  0
SEQEND
  0
POLYLINE
  8
PG_SOLDERMASK_TOP
 66
1
 70
1
 40
0.000000
 41
0.000000
 39
0.000000
  0
VERTEX
  8
PG_SOLDERMASK_TOP
 10
66.700000
 20
35.200000
 40
0.000000
 41
0.000000
 42
1.000000
  0
VERTEX
  8
PG_SOLDERMASK_TOP
 10
65.899986
 20
35.200018
 40
0.000000
 41
0.000000
 42
1.000000
  0
SEQEND
  0
POLYLINE
  8
PG_SOLDERMASK_TOP
 66
1
 70
1
 40
0.000000
 41
0.000000
 39
0.000000
  0
VERTEX
  8
PG_SOLDERMASK_TOP
 10
55.300000
 20
35.200000
 40
0.000000
 41
0.000000
 42
1.000000
  0
VERTEX
  8
PG_SOLDERMASK_TOP
 10
54.499986
 20
35.200018
 40
0.000000
 41
0.000000
 42
1.000000
  0
SEQEND
  0
TEXT
  8
RD_SILKSCREEN_TOP
 10
59.250000
 20
38.750000
 11
0.000000
 21
0.000000
 40
0.800000
 41
1.250000
 50
0.000000
  7
STANDARD
 71
0
 72
0
  1
L05
 73
0
  0
POLYLINE
  8
PIN_TOP
 66
1
 70
1
 40
0.000000
 41
0.000000
 39
0.000000
  0
VERTEX
  8
PIN_TOP
 10
60.400000
 20
7.585000
 40
0.000000
 41
0.000000
 42
0.000000
  0
VERTEX
  8
PIN_TOP
 10
58.700000
 20
7.585000
 40
0.000000
 41
0.000000
 42
0.000000
  0
VERTEX
  8
PIN_TOP
 10
58.700000
 20
7.015000
 40
0.000000
 41
0.000000
 42
0.000000
  0
VERTEX
  8
PIN_TOP
 10
57.900000
 20
7.015000
 40
0.000000
 41
0.000000
 42
0.000000
  0
VERTEX
  8
PIN_TOP
 10
57.900000
 20
7.585000
 40
0.000000
 41
0.000000
 42
0.000000
  0
VERTEX
  8
PIN_TOP
 10
58.300000
 20
7.585000
 40
0.000000
 41
0.000000
 42
0.000000
  0
VERTEX
  8
PIN_TOP
 10
58.300000
 20
12.015000
 40
0.000000
 41
0.000000
 42
0.000000
  0
VERTEX
  8
PIN_TOP
 10
57.900000
 20
12.015000
 40
0.000000
 41
0.000000
 42
0.000000
  0
VERTEX
  8
PIN_TOP
 10
57.900000
 20
12.585000
 40
0.000000
 41
0.000000
 42
0.000000
  0
VERTEX
  8
PIN_TOP
 10
58.700000
 20
12.585000
 40
0.000000
 41
0.000000
 42
0.000000
  0
VERTEX
  8
PIN_TOP
 10
58.700000
 20
12.015000
 40
0.000000
 41
0.000000
 42
0.000000
  0
VERTEX
  8
PIN_TOP
 10
60.400000
 20
12.015000
 40
0.000000
 41
0.000000
 42
0.000000
  0
VERTEX
  8
PIN_TOP
 10
60.400000
 20
9.800000
 40
0.000000
 41
0.000000
 42
0.000000
  0
SEQEND
  0
POLYLINE
  8
PIN_SOLDERMASK_TOP
 66
1
 70
1
 40
0.000000
 41
0.000000
 39
0.000000
  0
VERTEX
  8
PIN_SOLDERMASK_TOP
 10
60.400000
 20
7.585000
 40
0.000000
 41
0.000000
 42
0.000000
  0
VERTEX
  8
PIN_SOLDERMASK_TOP
 10
58.700000
 20
7.585000
 40
0.000000
 41
0.000000
 42
0.000000
  0
VERTEX
  8
PIN_SOLDERMASK_TOP
 10
58.700000
 20
7.015000
 40
0.000000
 41
0.000000
 42
0.000000
  0
VERTEX
  8
PIN_SOLDERMASK_TOP
 10
57.900000
 20
7.015000
 40
0.000000
 41
0.000000
 42
0.000000
  0
VERTEX
  8
PIN_SOLDERMASK_TOP
 10
57.900000
 20
7.585000
 40
0.000000
 41
0.000000
 42
0.000000
  0
VERTEX
  8
PIN_SOLDERMASK_TOP
 10
58.300000
 20
7.585000
 40
0.000000
 41
0.000000
 42
0.000000
  0
VERTEX
  8
PIN_SOLDERMASK_TOP
 10
58.300000
 20
12.015000
 40
0.000000
 41
0.000000
 42
0.000000
  0
VERTEX
  8
PIN_SOLDERMASK_TOP
 10
57.900000
 20
12.015000
 40
0.000000
 41
0.000000
 42
0.000000
  0
VERTEX
  8
PIN_SOLDERMASK_TOP
 10
57.900000
 20
12.585000
 40
0.000000
 41
0.000000
 42
0.000000
  0
VERTEX
  8
PIN_SOLDERMASK_TOP
 10
58.700000
 20
12.585000
 40
0.000000
 41
0.000000
 42
0.000000
  0
VERTEX
  8
PIN_SOLDERMASK_TOP
 10
58.700000
 20
12.015000
 40
0.000000
 41
0.000000
 42
0.000000
  0
VERTEX
  8
PIN_SOLDERMASK_TOP
 10
60.400000
 20
12.015000
 40
0.000000
 41
0.000000
 42
0.000000
  0
VERTEX
  8
PIN_SOLDERMASK_TOP
 10
60.400000
 20
9.800000
 40
0.000000
 41
0.000000
 42
0.000000
  0
SEQEND
  0
POLYLINE
  8
PIN_TOP
 66
1
 70
1
 40
0.000000
 41
0.000000
 39
0.000000
  0
VERTEX
  8
PIN_TOP
 10
60.800000
 20
12.015000
 40
0.000000
 41
0.000000
 42
0.000000
  0
VERTEX
  8
PIN_TOP
 10
62.500000
 20
12.015000
 40
0.000000
 41
0.000000
 42
0.000000
  0
VERTEX
  8
PIN_TOP
 10
62.500000
 20
12.585000
 40
0.000000
 41
0.000000
 42
0.000000
  0
VERTEX
  8
PIN_TOP
 10
63.300000
 20
12.585000
 40
0.000000
 41
0.000000
 42
0.000000
  0
VERTEX
  8
PIN_TOP
 10
63.300000
 20
12.015000
 40
0.000000
 41
0.000000
 42
0.000000
  0
VERTEX
  8
PIN_TOP
 10
62.900000
 20
12.015000
 40
0.000000
 41
0.000000
 42
0.000000
  0
VERTEX
  8
PIN_TOP
 10
62.900000
 20
7.585000
 40
0.000000
 41
0.000000
 42
0.000000
  0
VERTEX
  8
PIN_TOP
 10
63.300000
 20
7.585000
 40
0.000000
 41
0.000000
 42
0.000000
  0
VERTEX
  8
PIN_TOP
 10
63.300000
 20
7.015000
 40
0.000000
 41
0.000000
 42
0.000000
  0
VERTEX
  8
PIN_TOP
 10
62.500000
 20
7.015000
 40
0.000000
 41
0.000000
 42
0.000000
  0
VERTEX
  8
PIN_TOP
 10
62.500000
 20
7.585000
 40
0.000000
 41
0.000000
 42
0.000000
  0
VERTEX
  8
PIN_TOP
 10
60.800000
 20
7.585000
 40
0.000000
 41
0.000000
 42
0.000000
  0
VERTEX
  8
PIN_TOP
 10
60.800000
 20
9.800000
 40
0.000000
 41
0.000000
 42
0.000000
  0
SEQEND
  0
POLYLINE
  8
PIN_SOLDERMASK_TOP
 66
1
 70
1
 40
0.000000
 41
0.000000
 39
0.000000
  0
VERTEX
  8
PIN_SOLDERMASK_TOP
 10
60.800000
 20
12.015000
 40
0.000000
 41
0.000000
 42
0.000000
  0
VERTEX
  8
PIN_SOLDERMASK_TOP
 10
62.500000
 20
12.015000
 40
0.000000
 41
0.000000
 42
0.000000
  0
VERTEX
  8
PIN_SOLDERMASK_TOP
 10
62.500000
 20
12.585000
 40
0.000000
 41
0.000000
 42
0.000000
  0
VERTEX
  8
PIN_SOLDERMASK_TOP
 10
63.300000
 20
12.585000
 40
0.000000
 41
0.000000
 42
0.000000
  0
VERTEX
  8
PIN_SOLDERMASK_TOP
 10
63.300000
 20
12.015000
 40
0.000000
 41
0.000000
 42
0.000000
  0
VERTEX
  8
PIN_SOLDERMASK_TOP
 10
62.900000
 20
12.015000
 40
0.000000
 41
0.000000
 42
0.000000
  0
VERTEX
  8
PIN_SOLDERMASK_TOP
 10
62.900000
 20
7.585000
 40
0.000000
 41
0.000000
 42
0.000000
  0
VERTEX
  8
PIN_SOLDERMASK_TOP
 10
63.300000
 20
7.585000
 40
0.000000
 41
0.000000
 42
0.000000
  0
VERTEX
  8
PIN_SOLDERMASK_TOP
 10
63.300000
 20
7.015000
 40
0.000000
 41
0.000000
 42
0.000000
  0
VERTEX
  8
PIN_SOLDERMASK_TOP
 10
62.500000
 20
7.015000
 40
0.000000
 41
0.000000
 42
0.000000
  0
VERTEX
  8
PIN_SOLDERMASK_TOP
 10
62.500000
 20
7.585000
 40
0.000000
 41
0.000000
 42
0.000000
  0
VERTEX
  8
PIN_SOLDERMASK_TOP
 10
60.800000
 20
7.585000
 40
0.000000
 41
0.000000
 42
0.000000
  0
VERTEX
  8
PIN_SOLDERMASK_TOP
 10
60.800000
 20
9.800000
 40
0.000000
 41
0.000000
 42
0.000000
  0
SEQEND
  0
POLYLINE
  8
PG_SOLDERMASK_TOP
 66
1
 70
1
 40
0.000000
 41
0.000000
 39
0.000000
  0
VERTEX
  8
PG_SOLDERMASK_TOP
 10
66.700000
 20
9.800000
 40
0.000000
 41
0.000000
 42
1.000000
  0
VERTEX
  8
PG_SOLDERMASK_TOP
 10
65.899986
 20
9.800018
 40
0.000000
 41
0.000000
 42
1.000000
  0
SEQEND
  0
POLYLINE
  8
PG_SOLDERMASK_TOP
 66
1
 70
1
 40
0.000000
 41
0.000000
 39
0.000000
  0
VERTEX
  8
PG_SOLDERMASK_TOP
 10
55.300000
 20
9.800000
 40
0.000000
 41
0.000000
 42
1.000000
  0
VERTEX
  8
PG_SOLDERMASK_TOP
 10
54.499986
 20
9.800018
 40
0.000000
 41
0.000000
 42
1.000000
  0
SEQEND
  0
TEXT
  8
RD_SILKSCREEN_TOP
 10
59.000000
 20
13.250000
 11
0.000000
 21
0.000000
 40
0.800000
 41
1.250000
 50
0.000000
  7
STANDARD
 71
0
 72
0
  1
L06
 73
0
  0
POLYLINE
  8
PIN_TOP
 66
1
 70
1
 40
0.000000
 41
0.000000
 39
0.000000
  0
VERTEX
  8
PIN_TOP
 10
85.800000
 20
32.985000
 40
0.000000
 41
0.000000
 42
0.000000
  0
VERTEX
  8
PIN_TOP
 10
84.100000
 20
32.985000
 40
0.000000
 41
0.000000
 42
0.000000
  0
VERTEX
  8
PIN_TOP
 10
84.100000
 20
32.415000
 40
0.000000
 41
0.000000
 42
0.000000
  0
VERTEX
  8
PIN_TOP
 10
83.300000
 20
32.415000
 40
0.000000
 41
0.000000
 42
0.000000
  0
VERTEX
  8
PIN_TOP
 10
83.300000
 20
32.985000
 40
0.000000
 41
0.000000
 42
0.000000
  0
VERTEX
  8
PIN_TOP
 10
83.700000
 20
32.985000
 40
0.000000
 41
0.000000
 42
0.000000
  0
VERTEX
  8
PIN_TOP
 10
83.700000
 20
37.415000
 40
0.000000
 41
0.000000
 42
0.000000
  0
VERTEX
  8
PIN_TOP
 10
83.300000
 20
37.415000
 40
0.000000
 41
0.000000
 42
0.000000
  0
VERTEX
  8
PIN_TOP
 10
83.300000
 20
37.985000
 40
0.000000
 41
0.000000
 42
0.000000
  0
VERTEX
  8
PIN_TOP
 10
84.100000
 20
37.985000
 40
0.000000
 41
0.000000
 42
0.000000
  0
VERTEX
  8
PIN_TOP
 10
84.100000
 20
37.415000
 40
0.000000
 41
0.000000
 42
0.000000
  0
VERTEX
  8
PIN_TOP
 10
85.800000
 20
37.415000
 40
0.000000
 41
0.000000
 42
0.000000
  0
VERTEX
  8
PIN_TOP
 10
85.800000
 20
35.200000
 40
0.000000
 41
0.000000
 42
0.000000
  0
SEQEND
  0
POLYLINE
  8
PIN_SOLDERMASK_TOP
 66
1
 70
1
 40
0.000000
 41
0.000000
 39
0.000000
  0
VERTEX
  8
PIN_SOLDERMASK_TOP
 10
85.800000
 20
32.985000
 40
0.000000
 41
0.000000
 42
0.000000
  0
VERTEX
  8
PIN_SOLDERMASK_TOP
 10
84.100000
 20
32.985000
 40
0.000000
 41
0.000000
 42
0.000000
  0
VERTEX
  8
PIN_SOLDERMASK_TOP
 10
84.100000
 20
32.415000
 40
0.000000
 41
0.000000
 42
0.000000
  0
VERTEX
  8
PIN_SOLDERMASK_TOP
 10
83.300000
 20
32.415000
 40
0.000000
 41
0.000000
 42
0.000000
  0
VERTEX
  8
PIN_SOLDERMASK_TOP
 10
83.300000
 20
32.985000
 40
0.000000
 41
0.000000
 42
0.000000
  0
VERTEX
  8
PIN_SOLDERMASK_TOP
 10
83.700000
 20
32.985000
 40
0.000000
 41
0.000000
 42
0.000000
  0
VERTEX
  8
PIN_SOLDERMASK_TOP
 10
83.700000
 20
37.415000
 40
0.000000
 41
0.000000
 42
0.000000
  0
VERTEX
  8
PIN_SOLDERMASK_TOP
 10
83.300000
 20
37.415000
 40
0.000000
 41
0.000000
 42
0.000000
  0
VERTEX
  8
PIN_SOLDERMASK_TOP
 10
83.300000
 20
37.985000
 40
0.000000
 41
0.000000
 42
0.000000
  0
VERTEX
  8
PIN_SOLDERMASK_TOP
 10
84.100000
 20
37.985000
 40
0.000000
 41
0.000000
 42
0.000000
  0
VERTEX
  8
PIN_SOLDERMASK_TOP
 10
84.100000
 20
37.415000
 40
0.000000
 41
0.000000
 42
0.000000
  0
VERTEX
  8
PIN_SOLDERMASK_TOP
 10
85.800000
 20
37.415000
 40
0.000000
 41
0.000000
 42
0.000000
  0
VERTEX
  8
PIN_SOLDERMASK_TOP
 10
85.800000
 20
35.200000
 40
0.000000
 41
0.000000
 42
0.000000
  0
SEQEND
  0
POLYLINE
  8
PIN_TOP
 66
1
 70
1
 40
0.000000
 41
0.000000
 39
0.000000
  0
VERTEX
  8
PIN_TOP
 10
86.200000
 20
37.415000
 40
0.000000
 41
0.000000
 42
0.000000
  0
VERTEX
  8
PIN_TOP
 10
87.900000
 20
37.415000
 40
0.000000
 41
0.000000
 42
0.000000
  0
VERTEX
  8
PIN_TOP
 10
87.900000
 20
37.985000
 40
0.000000
 41
0.000000
 42
0.000000
  0
VERTEX
  8
PIN_TOP
 10
88.700000
 20
37.985000
 40
0.000000
 41
0.000000
 42
0.000000
  0
VERTEX
  8
PIN_TOP
 10
88.700000
 20
37.415000
 40
0.000000
 41
0.000000
 42
0.000000
  0
VERTEX
  8
PIN_TOP
 10
88.300000
 20
37.415000
 40
0.000000
 41
0.000000
 42
0.000000
  0
VERTEX
  8
PIN_TOP
 10
88.300000
 20
32.985000
 40
0.000000
 41
0.000000
 42
0.000000
  0
VERTEX
  8
PIN_TOP
 10
88.700000
 20
32.985000
 40
0.000000
 41
0.000000
 42
0.000000
  0
VERTEX
  8
PIN_TOP
 10
88.700000
 20
32.415000
 40
0.000000
 41
0.000000
 42
0.000000
  0
VERTEX
  8
PIN_TOP
 10
87.900000
 20
32.415000
 40
0.000000
 41
0.000000
 42
0.000000
  0
VERTEX
  8
PIN_TOP
 10
87.900000
 20
32.985000
 40
0.000000
 41
0.000000
 42
0.000000
  0
VERTEX
  8
PIN_TOP
 10
86.200000
 20
32.985000
 40
0.000000
 41
0.000000
 42
0.000000
  0
VERTEX
  8
PIN_TOP
 10
86.200000
 20
35.200000
 40
0.000000
 41
0.000000
 42
0.000000
  0
SEQEND
  0
POLYLINE
  8
PIN_SOLDERMASK_TOP
 66
1
 70
1
 40
0.000000
 41
0.000000
 39
0.000000
  0
VERTEX
  8
PIN_SOLDERMASK_TOP
 10
86.200000
 20
37.415000
 40
0.000000
 41
0.000000
 42
0.000000
  0
VERTEX
  8
PIN_SOLDERMASK_TOP
 10
87.900000
 20
37.415000
 40
0.000000
 41
0.000000
 42
0.000000
  0
VERTEX
  8
PIN_SOLDERMASK_TOP
 10
87.900000
 20
37.985000
 40
0.000000
 41
0.000000
 42
0.000000
  0
VERTEX
  8
PIN_SOLDERMASK_TOP
 10
88.700000
 20
37.985000
 40
0.000000
 41
0.000000
 42
0.000000
  0
VERTEX
  8
PIN_SOLDERMASK_TOP
 10
88.700000
 20
37.415000
 40
0.000000
 41
0.000000
 42
0.000000
  0
VERTEX
  8
PIN_SOLDERMASK_TOP
 10
88.300000
 20
37.415000
 40
0.000000
 41
0.000000
 42
0.000000
  0
VERTEX
  8
PIN_SOLDERMASK_TOP
 10
88.300000
 20
32.985000
 40
0.000000
 41
0.000000
 42
0.000000
  0
VERTEX
  8
PIN_SOLDERMASK_TOP
 10
88.700000
 20
32.985000
 40
0.000000
 41
0.000000
 42
0.000000
  0
VERTEX
  8
PIN_SOLDERMASK_TOP
 10
88.700000
 20
32.415000
 40
0.000000
 41
0.000000
 42
0.000000
  0
VERTEX
  8
PIN_SOLDERMASK_TOP
 10
87.900000
 20
32.415000
 40
0.000000
 41
0.000000
 42
0.000000
  0
VERTEX
  8
PIN_SOLDERMASK_TOP
 10
87.900000
 20
32.985000
 40
0.000000
 41
0.000000
 42
0.000000
  0
VERTEX
  8
PIN_SOLDERMASK_TOP
 10
86.200000
 20
32.985000
 40
0.000000
 41
0.000000
 42
0.000000
  0
VERTEX
  8
PIN_SOLDERMASK_TOP
 10
86.200000
 20
35.200000
 40
0.000000
 41
0.000000
 42
0.000000
  0
SEQEND
  0
POLYLINE
  8
PG_SOLDERMASK_TOP
 66
1
 70
1
 40
0.000000
 41
0.000000
 39
0.000000
  0
VERTEX
  8
PG_SOLDERMASK_TOP
 10
92.100000
 20
35.200000
 40
0.000000
 41
0.000000
 42
1.000000
  0
VERTEX
  8
PG_SOLDERMASK_TOP
 10
91.299986
 20
35.200018
 40
0.000000
 41
0.000000
 42
1.000000
  0
SEQEND
  0
POLYLINE
  8
PG_SOLDERMASK_TOP
 66
1
 70
1
 40
0.000000
 41
0.000000
 39
0.000000
  0
VERTEX
  8
PG_SOLDERMASK_TOP
 10
80.700000
 20
35.200000
 40
0.000000
 41
0.000000
 42
1.000000
  0
VERTEX
  8
PG_SOLDERMASK_TOP
 10
79.899986
 20
35.200018
 40
0.000000
 41
0.000000
 42
1.000000
  0
SEQEND
  0
TEXT
  8
RD_SILKSCREEN_TOP
 10
84.500000
 20
38.750000
 11
0.000000
 21
0.000000
 40
0.800000
 41
1.250000
 50
0.000000
  7
STANDARD
 71
0
 72
0
  1
L07
 73
0
  0
POLYLINE
  8
PIN_TOP
 66
1
 70
1
 40
0.000000
 41
0.000000
 39
0.000000
  0
VERTEX
  8
PIN_TOP
 10
85.800000
 20
7.585000
 40
0.000000
 41
0.000000
 42
0.000000
  0
VERTEX
  8
PIN_TOP
 10
84.100000
 20
7.585000
 40
0.000000
 41
0.000000
 42
0.000000
  0
VERTEX
  8
PIN_TOP
 10
84.100000
 20
7.015000
 40
0.000000
 41
0.000000
 42
0.000000
  0
VERTEX
  8
PIN_TOP
 10
83.300000
 20
7.015000
 40
0.000000
 41
0.000000
 42
0.000000
  0
VERTEX
  8
PIN_TOP
 10
83.300000
 20
7.585000
 40
0.000000
 41
0.000000
 42
0.000000
  0
VERTEX
  8
PIN_TOP
 10
83.700000
 20
7.585000
 40
0.000000
 41
0.000000
 42
0.000000
  0
VERTEX
  8
PIN_TOP
 10
83.700000
 20
12.015000
 40
0.000000
 41
0.000000
 42
0.000000
  0
VERTEX
  8
PIN_TOP
 10
83.300000
 20
12.015000
 40
0.000000
 41
0.000000
 42
0.000000
  0
VERTEX
  8
PIN_TOP
 10
83.300000
 20
12.585000
 40
0.000000
 41
0.000000
 42
0.000000
  0
VERTEX
  8
PIN_TOP
 10
84.100000
 20
12.585000
 40
0.000000
 41
0.000000
 42
0.000000
  0
VERTEX
  8
PIN_TOP
 10
84.100000
 20
12.015000
 40
0.000000
 41
0.000000
 42
0.000000
  0
VERTEX
  8
PIN_TOP
 10
85.800000
 20
12.015000
 40
0.000000
 41
0.000000
 42
0.000000
  0
VERTEX
  8
PIN_TOP
 10
85.800000
 20
9.800000
 40
0.000000
 41
0.000000
 42
0.000000
  0
SEQEND
  0
POLYLINE
  8
PIN_SOLDERMASK_TOP
 66
1
 70
1
 40
0.000000
 41
0.000000
 39
0.000000
  0
VERTEX
  8
PIN_SOLDERMASK_TOP
 10
85.800000
 20
7.585000
 40
0.000000
 41
0.000000
 42
0.000000
  0
VERTEX
  8
PIN_SOLDERMASK_TOP
 10
84.100000
 20
7.585000
 40
0.000000
 41
0.000000
 42
0.000000
  0
VERTEX
  8
PIN_SOLDERMASK_TOP
 10
84.100000
 20
7.015000
 40
0.000000
 41
0.000000
 42
0.000000
  0
VERTEX
  8
PIN_SOLDERMASK_TOP
 10
83.300000
 20
7.015000
 40
0.000000
 41
0.000000
 42
0.000000
  0
VERTEX
  8
PIN_SOLDERMASK_TOP
 10
83.300000
 20
7.585000
 40
0.000000
 41
0.000000
 42
0.000000
  0
VERTEX
  8
PIN_SOLDERMASK_TOP
 10
83.700000
 20
7.585000
 40
0.000000
 41
0.000000
 42
0.000000
  0
VERTEX
  8
PIN_SOLDERMASK_TOP
 10
83.700000
 20
12.015000
 40
0.000000
 41
0.000000
 42
0.000000
  0
VERTEX
  8
PIN_SOLDERMASK_TOP
 10
83.300000
 20
12.015000
 40
0.000000
 41
0.000000
 42
0.000000
  0
VERTEX
  8
PIN_SOLDERMASK_TOP
 10
83.300000
 20
12.585000
 40
0.000000
 41
0.000000
 42
0.000000
  0
VERTEX
  8
PIN_SOLDERMASK_TOP
 10
84.100000
 20
12.585000
 40
0.000000
 41
0.000000
 42
0.000000
  0
VERTEX
  8
PIN_SOLDERMASK_TOP
 10
84.100000
 20
12.015000
 40
0.000000
 41
0.000000
 42
0.000000
  0
VERTEX
  8
PIN_SOLDERMASK_TOP
 10
85.800000
 20
12.015000
 40
0.000000
 41
0.000000
 42
0.000000
  0
VERTEX
  8
PIN_SOLDERMASK_TOP
 10
85.800000
 20
9.800000
 40
0.000000
 41
0.000000
 42
0.000000
  0
SEQEND
  0
POLYLINE
  8
PIN_TOP
 66
1
 70
1
 40
0.000000
 41
0.000000
 39
0.000000
  0
VERTEX
  8
PIN_TOP
 10
86.200000
 20
12.015000
 40
0.000000
 41
0.000000
 42
0.000000
  0
VERTEX
  8
PIN_TOP
 10
87.900000
 20
12.015000
 40
0.000000
 41
0.000000
 42
0.000000
  0
VERTEX
  8
PIN_TOP
 10
87.900000
 20
12.585000
 40
0.000000
 41
0.000000
 42
0.000000
  0
VERTEX
  8
PIN_TOP
 10
88.700000
 20
12.585000
 40
0.000000
 41
0.000000
 42
0.000000
  0
VERTEX
  8
PIN_TOP
 10
88.700000
 20
12.015000
 40
0.000000
 41
0.000000
 42
0.000000
  0
VERTEX
  8
PIN_TOP
 10
88.300000
 20
12.015000
 40
0.000000
 41
0.000000
 42
0.000000
  0
VERTEX
  8
PIN_TOP
 10
88.300000
 20
7.585000
 40
0.000000
 41
0.000000
 42
0.000000
  0
VERTEX
  8
PIN_TOP
 10
88.700000
 20
7.585000
 40
0.000000
 41
0.000000
 42
0.000000
  0
VERTEX
  8
PIN_TOP
 10
88.700000
 20
7.015000
 40
0.000000
 41
0.000000
 42
0.000000
  0
VERTEX
  8
PIN_TOP
 10
87.900000
 20
7.015000
 40
0.000000
 41
0.000000
 42
0.000000
  0
VERTEX
  8
PIN_TOP
 10
87.900000
 20
7.585000
 40
0.000000
 41
0.000000
 42
0.000000
  0
VERTEX
  8
PIN_TOP
 10
86.200000
 20
7.585000
 40
0.000000
 41
0.000000
 42
0.000000
  0
VERTEX
  8
PIN_TOP
 10
86.200000
 20
9.800000
 40
0.000000
 41
0.000000
 42
0.000000
  0
SEQEND
  0
POLYLINE
  8
PIN_SOLDERMASK_TOP
 66
1
 70
1
 40
0.000000
 41
0.000000
 39
0.000000
  0
VERTEX
  8
PIN_SOLDERMASK_TOP
 10
86.200000
 20
12.015000
 40
0.000000
 41
0.000000
 42
0.000000
  0
VERTEX
  8
PIN_SOLDERMASK_TOP
 10
87.900000
 20
12.015000
 40
0.000000
 41
0.000000
 42
0.000000
  0
VERTEX
  8
PIN_SOLDERMASK_TOP
 10
87.900000
 20
12.585000
 40
0.000000
 41
0.000000
 42
0.000000
  0
VERTEX
  8
PIN_SOLDERMASK_TOP
 10
88.700000
 20
12.585000
 40
0.000000
 41
0.000000
 42
0.000000
  0
VERTEX
  8
PIN_SOLDERMASK_TOP
 10
88.700000
 20
12.015000
 40
0.000000
 41
0.000000
 42
0.000000
  0
VERTEX
  8
PIN_SOLDERMASK_TOP
 10
88.300000
 20
12.015000
 40
0.000000
 41
0.000000
 42
0.000000
  0
VERTEX
  8
PIN_SOLDERMASK_TOP
 10
88.300000
 20
7.585000
 40
0.000000
 41
0.000000
 42
0.000000
  0
VERTEX
  8
PIN_SOLDERMASK_TOP
 10
88.700000
 20
7.585000
 40
0.000000
 41
0.000000
 42
0.000000
  0
VERTEX
  8
PIN_SOLDERMASK_TOP
 10
88.700000
 20
7.015000
 40
0.000000
 41
0.000000
 42
0.000000
  0
VERTEX
  8
PIN_SOLDERMASK_TOP
 10
87.900000
 20
7.015000
 40
0.000000
 41
0.000000
 42
0.000000
  0
VERTEX
  8
PIN_SOLDERMASK_TOP
 10
87.900000
 20
7.585000
 40
0.000000
 41
0.000000
 42
0.000000
  0
VERTEX
  8
PIN_SOLDERMASK_TOP
 10
86.200000
 20
7.585000
 40
0.000000
 41
0.000000
 42
0.000000
  0
VERTEX
  8
PIN_SOLDERMASK_TOP
 10
86.200000
 20
9.800000
 40
0.000000
 41
0.000000
 42
0.000000
  0
SEQEND
  0
POLYLINE
  8
PG_SOLDERMASK_TOP
 66
1
 70
1
 40
0.000000
 41
0.000000
 39
0.000000
  0
VERTEX
  8
PG_SOLDERMASK_TOP
 10
92.100000
 20
9.800000
 40
0.000000
 41
0.000000
 42
1.000000
  0
VERTEX
  8
PG_SOLDERMASK_TOP
 10
91.299986
 20
9.800018
 40
0.000000
 41
0.000000
 42
1.000000
  0
SEQEND
  0
POLYLINE
  8
PG_SOLDERMASK_TOP
 66
1
 70
1
 40
0.000000
 41
0.000000
 39
0.000000
  0
VERTEX
  8
PG_SOLDERMASK_TOP
 10
80.700000
 20
9.800000
 40
0.000000
 41
0.000000
 42
1.000000
  0
VERTEX
  8
PG_SOLDERMASK_TOP
 10
79.899986
 20
9.800018
 40
0.000000
 41
0.000000
 42
1.000000
  0
SEQEND
  0
TEXT
  8
RD_SILKSCREEN_TOP
 10
84.500000
 20
13.250000
 11
0.000000
 21
0.000000
 40
0.800000
 41
1.250000
 50
0.000000
  7
STANDARD
 71
0
 72
0
  1
L08
 73
0
  0
POLYLINE
  8
PIN_TOP
 66
1
 70
1
 40
0.000000
 41
0.000000
 39
0.000000
  0
VERTEX
  8
PIN_TOP
 10
111.200000
 20
32.985000
 40
0.000000
 41
0.000000
 42
0.000000
  0
VERTEX
  8
PIN_TOP
 10
109.500000
 20
32.985000
 40
0.000000
 41
0.000000
 42
0.000000
  0
VERTEX
  8
PIN_TOP
 10
109.500000
 20
32.415000
 40
0.000000
 41
0.000000
 42
0.000000
  0
VERTEX
  8
PIN_TOP
 10
108.700000
 20
32.415000
 40
0.000000
 41
0.000000
 42
0.000000
  0
VERTEX
  8
PIN_TOP
 10
108.700000
 20
32.985000
 40
0.000000
 41
0.000000
 42
0.000000
  0
VERTEX
  8
PIN_TOP
 10
109.100000
 20
32.985000
 40
0.000000
 41
0.000000
 42
0.000000
  0
VERTEX
  8
PIN_TOP
 10
109.100000
 20
37.415000
 40
0.000000
 41
0.000000
 42
0.000000
  0
VERTEX
  8
PIN_TOP
 10
108.700000
 20
37.415000
 40
0.000000
 41
0.000000
 42
0.000000
  0
VERTEX
  8
PIN_TOP
 10
108.700000
 20
37.985000
 40
0.000000
 41
0.000000
 42
0.000000
  0
VERTEX
  8
PIN_TOP
 10
109.500000
 20
37.985000
 40
0.000000
 41
0.000000
 42
0.000000
  0
VERTEX
  8
PIN_TOP
 10
109.500000
 20
37.415000
 40
0.000000
 41
0.000000
 42
0.000000
  0
VERTEX
  8
PIN_TOP
 10
111.200000
 20
37.415000
 40
0.000000
 41
0.000000
 42
0.000000
  0
VERTEX
  8
PIN_TOP
 10
111.200000
 20
35.200000
 40
0.000000
 41
0.000000
 42
0.000000
  0
SEQEND
  0
POLYLINE
  8
PIN_SOLDERMASK_TOP
 66
1
 70
1
 40
0.000000
 41
0.000000
 39
0.000000
  0
VERTEX
  8
PIN_SOLDERMASK_TOP
 10
111.200000
 20
32.985000
 40
0.000000
 41
0.000000
 42
0.000000
  0
VERTEX
  8
PIN_SOLDERMASK_TOP
 10
109.500000
 20
32.985000
 40
0.000000
 41
0.000000
 42
0.000000
  0
VERTEX
  8
PIN_SOLDERMASK_TOP
 10
109.500000
 20
32.415000
 40
0.000000
 41
0.000000
 42
0.000000
  0
VERTEX
  8
PIN_SOLDERMASK_TOP
 10
108.700000
 20
32.415000
 40
0.000000
 41
0.000000
 42
0.000000
  0
VERTEX
  8
PIN_SOLDERMASK_TOP
 10
108.700000
 20
32.985000
 40
0.000000
 41
0.000000
 42
0.000000
  0
VERTEX
  8
PIN_SOLDERMASK_TOP
 10
109.100000
 20
32.985000
 40
0.000000
 41
0.000000
 42
0.000000
  0
VERTEX
  8
PIN_SOLDERMASK_TOP
 10
109.100000
 20
37.415000
 40
0.000000
 41
0.000000
 42
0.000000
  0
VERTEX
  8
PIN_SOLDERMASK_TOP
 10
108.700000
 20
37.415000
 40
0.000000
 41
0.000000
 42
0.000000
  0
VERTEX
  8
PIN_SOLDERMASK_TOP
 10
108.700000
 20
37.985000
 40
0.000000
 41
0.000000
 42
0.000000
  0
VERTEX
  8
PIN_SOLDERMASK_TOP
 10
109.500000
 20
37.985000
 40
0.000000
 41
0.000000
 42
0.000000
  0
VERTEX
  8
PIN_SOLDERMASK_TOP
 10
109.500000
 20
37.415000
 40
0.000000
 41
0.000000
 42
0.000000
  0
VERTEX
  8
PIN_SOLDERMASK_TOP
 10
111.200000
 20
37.415000
 40
0.000000
 41
0.000000
 42
0.000000
  0
VERTEX
  8
PIN_SOLDERMASK_TOP
 10
111.200000
 20
35.200000
 40
0.000000
 41
0.000000
 42
0.000000
  0
SEQEND
  0
POLYLINE
  8
PIN_TOP
 66
1
 70
1
 40
0.000000
 41
0.000000
 39
0.000000
  0
VERTEX
  8
PIN_TOP
 10
111.600000
 20
37.415000
 40
0.000000
 41
0.000000
 42
0.000000
  0
VERTEX
  8
PIN_TOP
 10
113.300000
 20
37.415000
 40
0.000000
 41
0.000000
 42
0.000000
  0
VERTEX
  8
PIN_TOP
 10
113.300000
 20
37.985000
 40
0.000000
 41
0.000000
 42
0.000000
  0
VERTEX
  8
PIN_TOP
 10
114.100000
 20
37.985000
 40
0.000000
 41
0.000000
 42
0.000000
  0
VERTEX
  8
PIN_TOP
 10
114.100000
 20
37.415000
 40
0.000000
 41
0.000000
 42
0.000000
  0
VERTEX
  8
PIN_TOP
 10
113.700000
 20
37.415000
 40
0.000000
 41
0.000000
 42
0.000000
  0
VERTEX
  8
PIN_TOP
 10
113.700000
 20
32.985000
 40
0.000000
 41
0.000000
 42
0.000000
  0
VERTEX
  8
PIN_TOP
 10
114.100000
 20
32.985000
 40
0.000000
 41
0.000000
 42
0.000000
  0
VERTEX
  8
PIN_TOP
 10
114.100000
 20
32.415000
 40
0.000000
 41
0.000000
 42
0.000000
  0
VERTEX
  8
PIN_TOP
 10
113.300000
 20
32.415000
 40
0.000000
 41
0.000000
 42
0.000000
  0
VERTEX
  8
PIN_TOP
 10
113.300000
 20
32.985000
 40
0.000000
 41
0.000000
 42
0.000000
  0
VERTEX
  8
PIN_TOP
 10
111.600000
 20
32.985000
 40
0.000000
 41
0.000000
 42
0.000000
  0
VERTEX
  8
PIN_TOP
 10
111.600000
 20
35.200000
 40
0.000000
 41
0.000000
 42
0.000000
  0
SEQEND
  0
POLYLINE
  8
PIN_SOLDERMASK_TOP
 66
1
 70
1
 40
0.000000
 41
0.000000
 39
0.000000
  0
VERTEX
  8
PIN_SOLDERMASK_TOP
 10
111.600000
 20
37.415000
 40
0.000000
 41
0.000000
 42
0.000000
  0
VERTEX
  8
PIN_SOLDERMASK_TOP
 10
113.300000
 20
37.415000
 40
0.000000
 41
0.000000
 42
0.000000
  0
VERTEX
  8
PIN_SOLDERMASK_TOP
 10
113.300000
 20
37.985000
 40
0.000000
 41
0.000000
 42
0.000000
  0
VERTEX
  8
PIN_SOLDERMASK_TOP
 10
114.100000
 20
37.985000
 40
0.000000
 41
0.000000
 42
0.000000
  0
VERTEX
  8
PIN_SOLDERMASK_TOP
 10
114.100000
 20
37.415000
 40
0.000000
 41
0.000000
 42
0.000000
  0
VERTEX
  8
PIN_SOLDERMASK_TOP
 10
113.700000
 20
37.415000
 40
0.000000
 41
0.000000
 42
0.000000
  0
VERTEX
  8
PIN_SOLDERMASK_TOP
 10
113.700000
 20
32.985000
 40
0.000000
 41
0.000000
 42
0.000000
  0
VERTEX
  8
PIN_SOLDERMASK_TOP
 10
114.100000
 20
32.985000
 40
0.000000
 41
0.000000
 42
0.000000
  0
VERTEX
  8
PIN_SOLDERMASK_TOP
 10
114.100000
 20
32.415000
 40
0.000000
 41
0.000000
 42
0.000000
  0
VERTEX
  8
PIN_SOLDERMASK_TOP
 10
113.300000
 20
32.415000
 40
0.000000
 41
0.000000
 42
0.000000
  0
VERTEX
  8
PIN_SOLDERMASK_TOP
 10
113.300000
 20
32.985000
 40
0.000000
 41
0.000000
 42
0.000000
  0
VERTEX
  8
PIN_SOLDERMASK_TOP
 10
111.600000
 20
32.985000
 40
0.000000
 41
0.000000
 42
0.000000
  0
VERTEX
  8
PIN_SOLDERMASK_TOP
 10
111.600000
 20
35.200000
 40
0.000000
 41
0.000000
 42
0.000000
  0
SEQEND
  0
POLYLINE
  8
PG_SOLDERMASK_TOP
 66
1
 70
1
 40
0.000000
 41
0.000000
 39
0.000000
  0
VERTEX
  8
PG_SOLDERMASK_TOP
 10
117.500000
 20
35.200000
 40
0.000000
 41
0.000000
 42
1.000000
  0
VERTEX
  8
PG_SOLDERMASK_TOP
 10
116.699986
 20
35.200018
 40
0.000000
 41
0.000000
 42
1.000000
  0
SEQEND
  0
POLYLINE
  8
PG_SOLDERMASK_TOP
 66
1
 70
1
 40
0.000000
 41
0.000000
 39
0.000000
  0
VERTEX
  8
PG_SOLDERMASK_TOP
 10
106.100000
 20
35.200000
 40
0.000000
 41
0.000000
 42
1.000000
  0
VERTEX
  8
PG_SOLDERMASK_TOP
 10
105.299986
 20
35.200018
 40
0.000000
 41
0.000000
 42
1.000000
  0
SEQEND
  0
TEXT
  8
RD_SILKSCREEN_TOP
 10
109.750000
 20
38.750000
 11
0.000000
 21
0.000000
 40
0.800000
 41
1.250000
 50
0.000000
  7
STANDARD
 71
0
 72
0
  1
L09
 73
0
  0
POLYLINE
  8
PIN_TOP
 66
1
 70
1
 40
0.000000
 41
0.000000
 39
0.000000
  0
VERTEX
  8
PIN_TOP
 10
111.200000
 20
7.585000
 40
0.000000
 41
0.000000
 42
0.000000
  0
VERTEX
  8
PIN_TOP
 10
109.500000
 20
7.585000
 40
0.000000
 41
0.000000
 42
0.000000
  0
VERTEX
  8
PIN_TOP
 10
109.500000
 20
7.015000
 40
0.000000
 41
0.000000
 42
0.000000
  0
VERTEX
  8
PIN_TOP
 10
108.700000
 20
7.015000
 40
0.000000
 41
0.000000
 42
0.000000
  0
VERTEX
  8
PIN_TOP
 10
108.700000
 20
7.585000
 40
0.000000
 41
0.000000
 42
0.000000
  0
VERTEX
  8
PIN_TOP
 10
109.100000
 20
7.585000
 40
0.000000
 41
0.000000
 42
0.000000
  0
VERTEX
  8
PIN_TOP
 10
109.100000
 20
12.015000
 40
0.000000
 41
0.000000
 42
0.000000
  0
VERTEX
  8
PIN_TOP
 10
108.700000
 20
12.015000
 40
0.000000
 41
0.000000
 42
0.000000
  0
VERTEX
  8
PIN_TOP
 10
108.700000
 20
12.585000
 40
0.000000
 41
0.000000
 42
0.000000
  0
VERTEX
  8
PIN_TOP
 10
109.500000
 20
12.585000
 40
0.000000
 41
0.000000
 42
0.000000
  0
VERTEX
  8
PIN_TOP
 10
109.500000
 20
12.015000
 40
0.000000
 41
0.000000
 42
0.000000
  0
VERTEX
  8
PIN_TOP
 10
111.200000
 20
12.015000
 40
0.000000
 41
0.000000
 42
0.000000
  0
VERTEX
  8
PIN_TOP
 10
111.200000
 20
9.800000
 40
0.000000
 41
0.000000
 42
0.000000
  0
SEQEND
  0
POLYLINE
  8
PIN_SOLDERMASK_TOP
 66
1
 70
1
 40
0.000000
 41
0.000000
 39
0.000000
  0
VERTEX
  8
PIN_SOLDERMASK_TOP
 10
111.200000
 20
7.585000
 40
0.000000
 41
0.000000
 42
0.000000
  0
VERTEX
  8
PIN_SOLDERMASK_TOP
 10
109.500000
 20
7.585000
 40
0.000000
 41
0.000000
 42
0.000000
  0
VERTEX
  8
PIN_SOLDERMASK_TOP
 10
109.500000
 20
7.015000
 40
0.000000
 41
0.000000
 42
0.000000
  0
VERTEX
  8
PIN_SOLDERMASK_TOP
 10
108.700000
 20
7.015000
 40
0.000000
 41
0.000000
 42
0.000000
  0
VERTEX
  8
PIN_SOLDERMASK_TOP
 10
108.700000
 20
7.585000
 40
0.000000
 41
0.000000
 42
0.000000
  0
VERTEX
  8
PIN_SOLDERMASK_TOP
 10
109.100000
 20
7.585000
 40
0.000000
 41
0.000000
 42
0.000000
  0
VERTEX
  8
PIN_SOLDERMASK_TOP
 10
109.100000
 20
12.015000
 40
0.000000
 41
0.000000
 42
0.000000
  0
VERTEX
  8
PIN_SOLDERMASK_TOP
 10
108.700000
 20
12.015000
 40
0.000000
 41
0.000000
 42
0.000000
  0
VERTEX
  8
PIN_SOLDERMASK_TOP
 10
108.700000
 20
12.585000
 40
0.000000
 41
0.000000
 42
0.000000
  0
VERTEX
  8
PIN_SOLDERMASK_TOP
 10
109.500000
 20
12.585000
 40
0.000000
 41
0.000000
 42
0.000000
  0
VERTEX
  8
PIN_SOLDERMASK_TOP
 10
109.500000
 20
12.015000
 40
0.000000
 41
0.000000
 42
0.000000
  0
VERTEX
  8
PIN_SOLDERMASK_TOP
 10
111.200000
 20
12.015000
 40
0.000000
 41
0.000000
 42
0.000000
  0
VERTEX
  8
PIN_SOLDERMASK_TOP
 10
111.200000
 20
9.800000
 40
0.000000
 41
0.000000
 42
0.000000
  0
SEQEND
  0
POLYLINE
  8
PIN_TOP
 66
1
 70
1
 40
0.000000
 41
0.000000
 39
0.000000
  0
VERTEX
  8
PIN_TOP
 10
111.600000
 20
12.015000
 40
0.000000
 41
0.000000
 42
0.000000
  0
VERTEX
  8
PIN_TOP
 10
113.300000
 20
12.015000
 40
0.000000
 41
0.000000
 42
0.000000
  0
VERTEX
  8
PIN_TOP
 10
113.300000
 20
12.585000
 40
0.000000
 41
0.000000
 42
0.000000
  0
VERTEX
  8
PIN_TOP
 10
114.100000
 20
12.585000
 40
0.000000
 41
0.000000
 42
0.000000
  0
VERTEX
  8
PIN_TOP
 10
114.100000
 20
12.015000
 40
0.000000
 41
0.000000
 42
0.000000
  0
VERTEX
  8
PIN_TOP
 10
113.700000
 20
12.015000
 40
0.000000
 41
0.000000
 42
0.000000
  0
VERTEX
  8
PIN_TOP
 10
113.700000
 20
7.585000
 40
0.000000
 41
0.000000
 42
0.000000
  0
VERTEX
  8
PIN_TOP
 10
114.100000
 20
7.585000
 40
0.000000
 41
0.000000
 42
0.000000
  0
VERTEX
  8
PIN_TOP
 10
114.100000
 20
7.015000
 40
0.000000
 41
0.000000
 42
0.000000
  0
VERTEX
  8
PIN_TOP
 10
113.300000
 20
7.015000
 40
0.000000
 41
0.000000
 42
0.000000
  0
VERTEX
  8
PIN_TOP
 10
113.300000
 20
7.585000
 40
0.000000
 41
0.000000
 42
0.000000
  0
VERTEX
  8
PIN_TOP
 10
111.600000
 20
7.585000
 40
0.000000
 41
0.000000
 42
0.000000
  0
VERTEX
  8
PIN_TOP
 10
111.600000
 20
9.800000
 40
0.000000
 41
0.000000
 42
0.000000
  0
SEQEND
  0
POLYLINE
  8
PIN_SOLDERMASK_TOP
 66
1
 70
1
 40
0.000000
 41
0.000000
 39
0.000000
  0
VERTEX
  8
PIN_SOLDERMASK_TOP
 10
111.600000
 20
12.015000
 40
0.000000
 41
0.000000
 42
0.000000
  0
VERTEX
  8
PIN_SOLDERMASK_TOP
 10
113.300000
 20
12.015000
 40
0.000000
 41
0.000000
 42
0.000000
  0
VERTEX
  8
PIN_SOLDERMASK_TOP
 10
113.300000
 20
12.585000
 40
0.000000
 41
0.000000
 42
0.000000
  0
VERTEX
  8
PIN_SOLDERMASK_TOP
 10
114.100000
 20
12.585000
 40
0.000000
 41
0.000000
 42
0.000000
  0
VERTEX
  8
PIN_SOLDERMASK_TOP
 10
114.100000
 20
12.015000
 40
0.000000
 41
0.000000
 42
0.000000
  0
VERTEX
  8
PIN_SOLDERMASK_TOP
 10
113.700000
 20
12.015000
 40
0.000000
 41
0.000000
 42
0.000000
  0
VERTEX
  8
PIN_SOLDERMASK_TOP
 10
113.700000
 20
7.585000
 40
0.000000
 41
0.000000
 42
0.000000
  0
VERTEX
  8
PIN_SOLDERMASK_TOP
 10
114.100000
 20
7.585000
 40
0.000000
 41
0.000000
 42
0.000000
  0
VERTEX
  8
PIN_SOLDERMASK_TOP
 10
114.100000
 20
7.015000
 40
0.000000
 41
0.000000
 42
0.000000
  0
VERTEX
  8
PIN_SOLDERMASK_TOP
 10
113.300000
 20
7.015000
 40
0.000000
 41
0.000000
 42
0.000000
  0
VERTEX
  8
PIN_SOLDERMASK_TOP
 10
113.300000
 20
7.585000
 40
0.000000
 41
0.000000
 42
0.000000
  0
VERTEX
  8
PIN_SOLDERMASK_TOP
 10
111.600000
 20
7.585000
 40
0.000000
 41
0.000000
 42
0.000000
  0
VERTEX
  8
PIN_SOLDERMASK_TOP
 10
111.600000
 20
9.800000
 40
0.000000
 41
0.000000
 42
0.000000
  0
SEQEND
  0
POLYLINE
  8
PG_SOLDERMASK_TOP
 66
1
 70
1
 40
0.000000
 41
0.000000
 39
0.000000
  0
VERTEX
  8
PG_SOLDERMASK_TOP
 10
117.500000
 20
9.800000
 40
0.000000
 41
0.000000
 42
1.000000
  0
VERTEX
  8
PG_SOLDERMASK_TOP
 10
116.699986
 20
9.800018
 40
0.000000
 41
0.000000
 42
1.000000
  0
SEQEND
  0
POLYLINE
  8
PG_SOLDERMASK_TOP
 66
1
 70
1
 40
0.000000
 41
0.000000
 39
0.000000
  0
VERTEX
  8
PG_SOLDERMASK_TOP
 10
106.100000
 20
9.800000
 40
0.000000
 41
0.000000
 42
1.000000
  0
VERTEX
  8
PG_SOLDERMASK_TOP
 10
105.299986
 20
9.800018
 40
0.000000
 41
0.000000
 42
1.000000
  0
SEQEND
  0
TEXT
  8
RD_SILKSCREEN_TOP
 10
110.250000
 20
13.250000
 11
0.000000
 21
0.000000
 40
0.800000
 41
1.250000
 50
0.000000
  7
STANDARD
 71
0
 72
0
  1
L10
 73
0
  0
POLYLINE
  8
PIN_TOP
 66
1
 70
1
 40
0.000000
 41
0.000000
 39
0.000000
  0
VERTEX
  8
PIN_TOP
 10
136.600000
 20
32.985000
 40
0.000000
 41
0.000000
 42
0.000000
  0
VERTEX
  8
PIN_TOP
 10
134.900000
 20
32.985000
 40
0.000000
 41
0.000000
 42
0.000000
  0
VERTEX
  8
PIN_TOP
 10
134.900000
 20
32.415000
 40
0.000000
 41
0.000000
 42
0.000000
  0
VERTEX
  8
PIN_TOP
 10
134.100000
 20
32.415000
 40
0.000000
 41
0.000000
 42
0.000000
  0
VERTEX
  8
PIN_TOP
 10
134.100000
 20
32.985000
 40
0.000000
 41
0.000000
 42
0.000000
  0
VERTEX
  8
PIN_TOP
 10
134.500000
 20
32.985000
 40
0.000000
 41
0.000000
 42
0.000000
  0
VERTEX
  8
PIN_TOP
 10
134.500000
 20
37.415000
 40
0.000000
 41
0.000000
 42
0.000000
  0
VERTEX
  8
PIN_TOP
 10
134.100000
 20
37.415000
 40
0.000000
 41
0.000000
 42
0.000000
  0
VERTEX
  8
PIN_TOP
 10
134.100000
 20
37.985000
 40
0.000000
 41
0.000000
 42
0.000000
  0
VERTEX
  8
PIN_TOP
 10
134.900000
 20
37.985000
 40
0.000000
 41
0.000000
 42
0.000000
  0
VERTEX
  8
PIN_TOP
 10
134.900000
 20
37.415000
 40
0.000000
 41
0.000000
 42
0.000000
  0
VERTEX
  8
PIN_TOP
 10
136.600000
 20
37.415000
 40
0.000000
 41
0.000000
 42
0.000000
  0
VERTEX
  8
PIN_TOP
 10
136.600000
 20
35.200000
 40
0.000000
 41
0.000000
 42
0.000000
  0
SEQEND
  0
POLYLINE
  8
PIN_SOLDERMASK_TOP
 66
1
 70
1
 40
0.000000
 41
0.000000
 39
0.000000
  0
VERTEX
  8
PIN_SOLDERMASK_TOP
 10
136.600000
 20
32.985000
 40
0.000000
 41
0.000000
 42
0.000000
  0
VERTEX
  8
PIN_SOLDERMASK_TOP
 10
134.900000
 20
32.985000
 40
0.000000
 41
0.000000
 42
0.000000
  0
VERTEX
  8
PIN_SOLDERMASK_TOP
 10
134.900000
 20
32.415000
 40
0.000000
 41
0.000000
 42
0.000000
  0
VERTEX
  8
PIN_SOLDERMASK_TOP
 10
134.100000
 20
32.415000
 40
0.000000
 41
0.000000
 42
0.000000
  0
VERTEX
  8
PIN_SOLDERMASK_TOP
 10
134.100000
 20
32.985000
 40
0.000000
 41
0.000000
 42
0.000000
  0
VERTEX
  8
PIN_SOLDERMASK_TOP
 10
134.500000
 20
32.985000
 40
0.000000
 41
0.000000
 42
0.000000
  0
VERTEX
  8
PIN_SOLDERMASK_TOP
 10
134.500000
 20
37.415000
 40
0.000000
 41
0.000000
 42
0.000000
  0
VERTEX
  8
PIN_SOLDERMASK_TOP
 10
134.100000
 20
37.415000
 40
0.000000
 41
0.000000
 42
0.000000
  0
VERTEX
  8
PIN_SOLDERMASK_TOP
 10
134.100000
 20
37.985000
 40
0.000000
 41
0.000000
 42
0.000000
  0
VERTEX
  8
PIN_SOLDERMASK_TOP
 10
134.900000
 20
37.985000
 40
0.000000
 41
0.000000
 42
0.000000
  0
VERTEX
  8
PIN_SOLDERMASK_TOP
 10
134.900000
 20
37.415000
 40
0.000000
 41
0.000000
 42
0.000000
  0
VERTEX
  8
PIN_SOLDERMASK_TOP
 10
136.600000
 20
37.415000
 40
0.000000
 41
0.000000
 42
0.000000
  0
VERTEX
  8
PIN_SOLDERMASK_TOP
 10
136.600000
 20
35.200000
 40
0.000000
 41
0.000000
 42
0.000000
  0
SEQEND
  0
POLYLINE
  8
PIN_TOP
 66
1
 70
1
 40
0.000000
 41
0.000000
 39
0.000000
  0
VERTEX
  8
PIN_TOP
 10
137.000000
 20
37.415000
 40
0.000000
 41
0.000000
 42
0.000000
  0
VERTEX
  8
PIN_TOP
 10
138.700000
 20
37.415000
 40
0.000000
 41
0.000000
 42
0.000000
  0
VERTEX
  8
PIN_TOP
 10
138.700000
 20
37.985000
 40
0.000000
 41
0.000000
 42
0.000000
  0
VERTEX
  8
PIN_TOP
 10
139.500000
 20
37.985000
 40
0.000000
 41
0.000000
 42
0.000000
  0
VERTEX
  8
PIN_TOP
 10
139.500000
 20
37.415000
 40
0.000000
 41
0.000000
 42
0.000000
  0
VERTEX
  8
PIN_TOP
 10
139.100000
 20
37.415000
 40
0.000000
 41
0.000000
 42
0.000000
  0
VERTEX
  8
PIN_TOP
 10
139.100000
 20
32.985000
 40
0.000000
 41
0.000000
 42
0.000000
  0
VERTEX
  8
PIN_TOP
 10
139.500000
 20
32.985000
 40
0.000000
 41
0.000000
 42
0.000000
  0
VERTEX
  8
PIN_TOP
 10
139.500000
 20
32.415000
 40
0.000000
 41
0.000000
 42
0.000000
  0
VERTEX
  8
PIN_TOP
 10
138.700000
 20
32.415000
 40
0.000000
 41
0.000000
 42
0.000000
  0
VERTEX
  8
PIN_TOP
 10
138.700000
 20
32.985000
 40
0.000000
 41
0.000000
 42
0.000000
  0
VERTEX
  8
PIN_TOP
 10
137.000000
 20
32.985000
 40
0.000000
 41
0.000000
 42
0.000000
  0
VERTEX
  8
PIN_TOP
 10
137.000000
 20
35.200000
 40
0.000000
 41
0.000000
 42
0.000000
  0
SEQEND
  0
POLYLINE
  8
PIN_SOLDERMASK_TOP
 66
1
 70
1
 40
0.000000
 41
0.000000
 39
0.000000
  0
VERTEX
  8
PIN_SOLDERMASK_TOP
 10
137.000000
 20
37.415000
 40
0.000000
 41
0.000000
 42
0.000000
  0
VERTEX
  8
PIN_SOLDERMASK_TOP
 10
138.700000
 20
37.415000
 40
0.000000
 41
0.000000
 42
0.000000
  0
VERTEX
  8
PIN_SOLDERMASK_TOP
 10
138.700000
 20
37.985000
 40
0.000000
 41
0.000000
 42
0.000000
  0
VERTEX
  8
PIN_SOLDERMASK_TOP
 10
139.500000
 20
37.985000
 40
0.000000
 41
0.000000
 42
0.000000
  0
VERTEX
  8
PIN_SOLDERMASK_TOP
 10
139.500000
 20
37.415000
 40
0.000000
 41
0.000000
 42
0.000000
  0
VERTEX
  8
PIN_SOLDERMASK_TOP
 10
139.100000
 20
37.415000
 40
0.000000
 41
0.000000
 42
0.000000
  0
VERTEX
  8
PIN_SOLDERMASK_TOP
 10
139.100000
 20
32.985000
 40
0.000000
 41
0.000000
 42
0.000000
  0
VERTEX
  8
PIN_SOLDERMASK_TOP
 10
139.500000
 20
32.985000
 40
0.000000
 41
0.000000
 42
0.000000
  0
VERTEX
  8
PIN_SOLDERMASK_TOP
 10
139.500000
 20
32.415000
 40
0.000000
 41
0.000000
 42
0.000000
  0
VERTEX
  8
PIN_SOLDERMASK_TOP
 10
138.700000
 20
32.415000
 40
0.000000
 41
0.000000
 42
0.000000
  0
VERTEX
  8
PIN_SOLDERMASK_TOP
 10
138.700000
 20
32.985000
 40
0.000000
 41
0.000000
 42
0.000000
  0
VERTEX
  8
PIN_SOLDERMASK_TOP
 10
137.000000
 20
32.985000
 40
0.000000
 41
0.000000
 42
0.000000
  0
VERTEX
  8
PIN_SOLDERMASK_TOP
 10
137.000000
 20
35.200000
 40
0.000000
 41
0.000000
 42
0.000000
  0
SEQEND
  0
POLYLINE
  8
PG_SOLDERMASK_TOP
 66
1
 70
1
 40
0.000000
 41
0.000000
 39
0.000000
  0
VERTEX
  8
PG_SOLDERMASK_TOP
 10
142.900000
 20
35.200000
 40
0.000000
 41
0.000000
 42
1.000000
  0
VERTEX
  8
PG_SOLDERMASK_TOP
 10
142.099986
 20
35.200018
 40
0.000000
 41
0.000000
 42
1.000000
  0
SEQEND
  0
POLYLINE
  8
PG_SOLDERMASK_TOP
 66
1
 70
1
 40
0.000000
 41
0.000000
 39
0.000000
  0
VERTEX
  8
PG_SOLDERMASK_TOP
 10
131.500000
 20
35.200000
 40
0.000000
 41
0.000000
 42
1.000000
  0
VERTEX
  8
PG_SOLDERMASK_TOP
 10
130.699986
 20
35.200018
 40
0.000000
 41
0.000000
 42
1.000000
  0
SEQEND
  0
TEXT
  8
RD_SILKSCREEN_TOP
 10
135.250000
 20
38.750000
 11
0.000000
 21
0.000000
 40
0.800000
 41
1.250000
 50
0.000000
  7
STANDARD
 71
0
 72
0
  1
L11
 73
0
  0
POLYLINE
  8
PIN_TOP
 66
1
 70
1
 40
0.000000
 41
0.000000
 39
0.000000
  0
VERTEX
  8
PIN_TOP
 10
136.600000
 20
7.585000
 40
0.000000
 41
0.000000
 42
0.000000
  0
VERTEX
  8
PIN_TOP
 10
134.900000
 20
7.585000
 40
0.000000
 41
0.000000
 42
0.000000
  0
VERTEX
  8
PIN_TOP
 10
134.900000
 20
7.015000
 40
0.000000
 41
0.000000
 42
0.000000
  0
VERTEX
  8
PIN_TOP
 10
134.100000
 20
7.015000
 40
0.000000
 41
0.000000
 42
0.000000
  0
VERTEX
  8
PIN_TOP
 10
134.100000
 20
7.585000
 40
0.000000
 41
0.000000
 42
0.000000
  0
VERTEX
  8
PIN_TOP
 10
134.500000
 20
7.585000
 40
0.000000
 41
0.000000
 42
0.000000
  0
VERTEX
  8
PIN_TOP
 10
134.500000
 20
12.015000
 40
0.000000
 41
0.000000
 42
0.000000
  0
VERTEX
  8
PIN_TOP
 10
134.100000
 20
12.015000
 40
0.000000
 41
0.000000
 42
0.000000
  0
VERTEX
  8
PIN_TOP
 10
134.100000
 20
12.585000
 40
0.000000
 41
0.000000
 42
0.000000
  0
VERTEX
  8
PIN_TOP
 10
134.900000
 20
12.585000
 40
0.000000
 41
0.000000
 42
0.000000
  0
VERTEX
  8
PIN_TOP
 10
134.900000
 20
12.015000
 40
0.000000
 41
0.000000
 42
0.000000
  0
VERTEX
  8
PIN_TOP
 10
136.600000
 20
12.015000
 40
0.000000
 41
0.000000
 42
0.000000
  0
VERTEX
  8
PIN_TOP
 10
136.600000
 20
9.800000
 40
0.000000
 41
0.000000
 42
0.000000
  0
SEQEND
  0
POLYLINE
  8
PIN_SOLDERMASK_TOP
 66
1
 70
1
 40
0.000000
 41
0.000000
 39
0.000000
  0
VERTEX
  8
PIN_SOLDERMASK_TOP
 10
136.600000
 20
7.585000
 40
0.000000
 41
0.000000
 42
0.000000
  0
VERTEX
  8
PIN_SOLDERMASK_TOP
 10
134.900000
 20
7.585000
 40
0.000000
 41
0.000000
 42
0.000000
  0
VERTEX
  8
PIN_SOLDERMASK_TOP
 10
134.900000
 20
7.015000
 40
0.000000
 41
0.000000
 42
0.000000
  0
VERTEX
  8
PIN_SOLDERMASK_TOP
 10
134.100000
 20
7.015000
 40
0.000000
 41
0.000000
 42
0.000000
  0
VERTEX
  8
PIN_SOLDERMASK_TOP
 10
134.100000
 20
7.585000
 40
0.000000
 41
0.000000
 42
0.000000
  0
VERTEX
  8
PIN_SOLDERMASK_TOP
 10
134.500000
 20
7.585000
 40
0.000000
 41
0.000000
 42
0.000000
  0
VERTEX
  8
PIN_SOLDERMASK_TOP
 10
134.500000
 20
12.015000
 40
0.000000
 41
0.000000
 42
0.000000
  0
VERTEX
  8
PIN_SOLDERMASK_TOP
 10
134.100000
 20
12.015000
 40
0.000000
 41
0.000000
 42
0.000000
  0
VERTEX
  8
PIN_SOLDERMASK_TOP
 10
134.100000
 20
12.585000
 40
0.000000
 41
0.000000
 42
0.000000
  0
VERTEX
  8
PIN_SOLDERMASK_TOP
 10
134.900000
 20
12.585000
 40
0.000000
 41
0.000000
 42
0.000000
  0
VERTEX
  8
PIN_SOLDERMASK_TOP
 10
134.900000
 20
12.015000
 40
0.000000
 41
0.000000
 42
0.000000
  0
VERTEX
  8
PIN_SOLDERMASK_TOP
 10
136.600000
 20
12.015000
 40
0.000000
 41
0.000000
 42
0.000000
  0
VERTEX
  8
PIN_SOLDERMASK_TOP
 10
136.600000
 20
9.800000
 40
0.000000
 41
0.000000
 42
0.000000
  0
SEQEND
  0
POLYLINE
  8
PIN_TOP
 66
1
 70
1
 40
0.000000
 41
0.000000
 39
0.000000
  0
VERTEX
  8
PIN_TOP
 10
137.000000
 20
12.015000
 40
0.000000
 41
0.000000
 42
0.000000
  0
VERTEX
  8
PIN_TOP
 10
138.700000
 20
12.015000
 40
0.000000
 41
0.000000
 42
0.000000
  0
VERTEX
  8
PIN_TOP
 10
138.700000
 20
12.585000
 40
0.000000
 41
0.000000
 42
0.000000
  0
VERTEX
  8
PIN_TOP
 10
139.500000
 20
12.585000
 40
0.000000
 41
0.000000
 42
0.000000
  0
VERTEX
  8
PIN_TOP
 10
139.500000
 20
12.015000
 40
0.000000
 41
0.000000
 42
0.000000
  0
VERTEX
  8
PIN_TOP
 10
139.100000
 20
12.015000
 40
0.000000
 41
0.000000
 42
0.000000
  0
VERTEX
  8
PIN_TOP
 10
139.100000
 20
7.585000
 40
0.000000
 41
0.000000
 42
0.000000
  0
VERTEX
  8
PIN_TOP
 10
139.500000
 20
7.585000
 40
0.000000
 41
0.000000
 42
0.000000
  0
VERTEX
  8
PIN_TOP
 10
139.500000
 20
7.015000
 40
0.000000
 41
0.000000
 42
0.000000
  0
VERTEX
  8
PIN_TOP
 10
138.700000
 20
7.015000
 40
0.000000
 41
0.000000
 42
0.000000
  0
VERTEX
  8
PIN_TOP
 10
138.700000
 20
7.585000
 40
0.000000
 41
0.000000
 42
0.000000
  0
VERTEX
  8
PIN_TOP
 10
137.000000
 20
7.585000
 40
0.000000
 41
0.000000
 42
0.000000
  0
VERTEX
  8
PIN_TOP
 10
137.000000
 20
9.800000
 40
0.000000
 41
0.000000
 42
0.000000
  0
SEQEND
  0
POLYLINE
  8
PIN_SOLDERMASK_TOP
 66
1
 70
1
 40
0.000000
 41
0.000000
 39
0.000000
  0
VERTEX
  8
PIN_SOLDERMASK_TOP
 10
137.000000
 20
12.015000
 40
0.000000
 41
0.000000
 42
0.000000
  0
VERTEX
  8
PIN_SOLDERMASK_TOP
 10
138.700000
 20
12.015000
 40
0.000000
 41
0.000000
 42
0.000000
  0
VERTEX
  8
PIN_SOLDERMASK_TOP
 10
138.700000
 20
12.585000
 40
0.000000
 41
0.000000
 42
0.000000
  0
VERTEX
  8
PIN_SOLDERMASK_TOP
 10
139.500000
 20
12.585000
 40
0.000000
 41
0.000000
 42
0.000000
  0
VERTEX
  8
PIN_SOLDERMASK_TOP
 10
139.500000
 20
12.015000
 40
0.000000
 41
0.000000
 42
0.000000
  0
VERTEX
  8
PIN_SOLDERMASK_TOP
 10
139.100000
 20
12.015000
 40
0.000000
 41
0.000000
 42
0.000000
  0
VERTEX
  8
PIN_SOLDERMASK_TOP
 10
139.100000
 20
7.585000
 40
0.000000
 41
0.000000
 42
0.000000
  0
VERTEX
  8
PIN_SOLDERMASK_TOP
 10
139.500000
 20
7.585000
 40
0.000000
 41
0.000000
 42
0.000000
  0
VERTEX
  8
PIN_SOLDERMASK_TOP
 10
139.500000
 20
7.015000
 40
0.000000
 41
0.000000
 42
0.000000
  0
VERTEX
  8
PIN_SOLDERMASK_TOP
 10
138.700000
 20
7.015000
 40
0.000000
 41
0.000000
 42
0.000000
  0
VERTEX
  8
PIN_SOLDERMASK_TOP
 10
138.700000
 20
7.585000
 40
0.000000
 41
0.000000
 42
0.000000
  0
VERTEX
  8
PIN_SOLDERMASK_TOP
 10
137.000000
 20
7.585000
 40
0.000000
 41
0.000000
 42
0.000000
  0
VERTEX
  8
PIN_SOLDERMASK_TOP
 10
137.000000
 20
9.800000
 40
0.000000
 41
0.000000
 42
0.000000
  0
SEQEND
  0
POLYLINE
  8
PG_SOLDERMASK_TOP
 66
1
 70
1
 40
0.000000
 41
0.000000
 39
0.000000
  0
VERTEX
  8
PG_SOLDERMASK_TOP
 10
142.900000
 20
9.800000
 40
0.000000
 41
0.000000
 42
1.000000
  0
VERTEX
  8
PG_SOLDERMASK_TOP
 10
142.099986
 20
9.800018
 40
0.000000
 41
0.000000
 42
1.000000
  0
SEQEND
  0
POLYLINE
  8
PG_SOLDERMASK_TOP
 66
1
 70
1
 40
0.000000
 41
0.000000
 39
0.000000
  0
VERTEX
  8
PG_SOLDERMASK_TOP
 10
131.500000
 20
9.800000
 40
0.000000
 41
0.000000
 42
1.000000
  0
VERTEX
  8
PG_SOLDERMASK_TOP
 10
130.699986
 20
9.800018
 40
0.000000
 41
0.000000
 42
1.000000
  0
SEQEND
  0
TEXT
  8
RD_SILKSCREEN_TOP
 10
135.250000
 20
13.250000
 11
0.000000
 21
0.000000
 40
0.800000
 41
1.250000
 50
0.000000
  7
STANDARD
 71
0
 72
0
  1
L12
 73
0
  0
POLYLINE
  8
PIN_TOP
 66
1
 70
1
 40
0.000000
 41
0.000000
 39
0.000000
  0
VERTEX
  8
PIN_TOP
 10
21.500000
 20
19.500000
 40
0.000000
 41
0.000000
 42
0.000000
  0
VERTEX
  8
PIN_TOP
 10
15.500000
 20
19.500000
 40
0.000000
 41
0.000000
 42
0.000000
  0
VERTEX
  8
PIN_TOP
 10
15.500000
 20
21.500000
 40
0.000000
 41
0.000000
 42
0.000000
  0
VERTEX
  8
PIN_TOP
 10
21.500000
 20
21.500000
 40
0.000000
 41
0.000000
 42
0.000000
  0
SEQEND
  0
POLYLINE
  8
PIN_SOLDERMASK_TOP
 66
1
 70
1
 40
0.000000
 41
0.000000
 39
0.000000
  0
VERTEX
  8
PIN_SOLDERMASK_TOP
 10
21.550000
 20
19.450000
 40
0.000000
 41
0.000000
 42
0.000000
  0
VERTEX
  8
PIN_SOLDERMASK_TOP
 10
15.450000
 20
19.450000
 40
0.000000
 41
0.000000
 42
0.000000
  0
VERTEX
  8
PIN_SOLDERMASK_TOP
 10
15.450000
 20
21.550000
 40
0.000000
 41
0.000000
 42
0.000000
  0
VERTEX
  8
PIN_SOLDERMASK_TOP
 10
21.550000
 20
21.550000
 40
0.000000
 41
0.000000
 42
0.000000
  0
SEQEND
  0
POLYLINE
  8
PIN_TOP
 66
1
 70
1
 40
0.000000
 41
0.000000
 39
0.000000
  0
VERTEX
  8
PIN_TOP
 10
26.000000
 20
21.500000
 40
0.000000
 41
0.000000
 42
0.000000
  0
VERTEX
  8
PIN_TOP
 10
29.500000
 20
21.500000
 40
0.000000
 41
0.000000
 42
0.000000
  0
VERTEX
  8
PIN_TOP
 10
29.500000
 20
19.500000
 40
0.000000
 41
0.000000
 42
0.000000
  0
VERTEX
  8
PIN_TOP
 10
26.000000
 20
19.500000
 40
0.000000
 41
0.000000
 42
0.000000
  0
SEQEND
  0
POLYLINE
  8
PIN_SOLDERMASK_TOP
 66
1
 70
1
 40
0.000000
 41
0.000000
 39
0.000000
  0
VERTEX
  8
PIN_SOLDERMASK_TOP
 10
25.950000
 20
21.550000
 40
0.000000
 41
0.000000
 42
0.000000
  0
VERTEX
  8
PIN_SOLDERMASK_TOP
 10
29.550000
 20
21.550000
 40
0.000000
 41
0.000000
 42
0.000000
  0
VERTEX
  8
PIN_SOLDERMASK_TOP
 10
29.550000
 20
19.450000
 40
0.000000
 41
0.000000
 42
0.000000
  0
VERTEX
  8
PIN_SOLDERMASK_TOP
 10
25.950000
 20
19.450000
 40
0.000000
 41
0.000000
 42
0.000000
  0
SEQEND
  0
POLYLINE
  8
PIN_TOP
 66
1
 70
1
 40
0.000000
 41
0.000000
 39
0.000000
  0
VERTEX
  8
PIN_TOP
 10
21.500000
 20
23.500000
 40
0.000000
 41
0.000000
 42
0.000000
  0
VERTEX
  8
PIN_TOP
 10
15.500000
 20
23.500000
 40
0.000000
 41
0.000000
 42
0.000000
  0
VERTEX
  8
PIN_TOP
 10
15.500000
 20
25.500000
 40
0.000000
 41
0.000000
 42
0.000000
  0
VERTEX
  8
PIN_TOP
 10
21.500000
 20
25.500000
 40
0.000000
 41
0.000000
 42
0.000000
  0
SEQEND
  0
POLYLINE
  8
PIN_SOLDERMASK_TOP
 66
1
 70
1
 40
0.000000
 41
0.000000
 39
0.000000
  0
VERTEX
  8
PIN_SOLDERMASK_TOP
 10
21.550000
 20
23.450000
 40
0.000000
 41
0.000000
 42
0.000000
  0
VERTEX
  8
PIN_SOLDERMASK_TOP
 10
15.450000
 20
23.450000
 40
0.000000
 41
0.000000
 42
0.000000
  0
VERTEX
  8
PIN_SOLDERMASK_TOP
 10
15.450000
 20
25.550000
 40
0.000000
 41
0.000000
 42
0.000000
  0
VERTEX
  8
PIN_SOLDERMASK_TOP
 10
21.550000
 20
25.550000
 40
0.000000
 41
0.000000
 42
0.000000
  0
SEQEND
  0
POLYLINE
  8
PIN_TOP
 66
1
 70
1
 40
0.000000
 41
0.000000
 39
0.000000
  0
VERTEX
  8
PIN_TOP
 10
26.000000
 20
25.500000
 40
0.000000
 41
0.000000
 42
0.000000
  0
VERTEX
  8
PIN_TOP
 10
29.500000
 20
25.500000
 40
0.000000
 41
0.000000
 42
0.000000
  0
VERTEX
  8
PIN_TOP
 10
29.500000
 20
23.500000
 40
0.000000
 41
0.000000
 42
0.000000
  0
VERTEX
  8
PIN_TOP
 10
26.000000
 20
23.500000
 40
0.000000
 41
0.000000
 42
0.000000
  0
SEQEND
  0
POLYLINE
  8
PIN_SOLDERMASK_TOP
 66
1
 70
1
 40
0.000000
 41
0.000000
 39
0.000000
  0
VERTEX
  8
PIN_SOLDERMASK_TOP
 10
25.950000
 20
25.550000
 40
0.000000
 41
0.000000
 42
0.000000
  0
VERTEX
  8
PIN_SOLDERMASK_TOP
 10
29.550000
 20
25.550000
 40
0.000000
 41
0.000000
 42
0.000000
  0
VERTEX
  8
PIN_SOLDERMASK_TOP
 10
29.550000
 20
23.450000
 40
0.000000
 41
0.000000
 42
0.000000
  0
VERTEX
  8
PIN_SOLDERMASK_TOP
 10
25.950000
 20
23.450000
 40
0.000000
 41
0.000000
 42
0.000000
  0
SEQEND
  0
POLYLINE
  8
PG_SOLDERMASK_TOP
 66
1
 70
0
 40
0.000000
 41
0.000000
 39
0.000000
  0
VERTEX
  8
PG_SOLDERMASK_TOP
 10
14.850000
 20
18.250000
 40
0.150000
 41
0.150000
 42
0.000000
  0
VERTEX
  8
PG_SOLDERMASK_TOP
 10
14.850000
 20
19.250000
 40
0.150000
 41
0.150000
 42
0.000000
  0
SEQEND
  0
POLYLINE
  8
PG_SOLDERMASK_TOP
 66
1
 70
0
 40
0.000000
 41
0.000000
 39
0.000000
  0
VERTEX
  8
PG_SOLDERMASK_TOP
 10
15.850000
 20
18.250000
 40
0.150000
 41
0.150000
 42
0.000000
  0
VERTEX
  8
PG_SOLDERMASK_TOP
 10
14.850000
 20
18.250000
 40
0.150000
 41
0.150000
 42
0.000000
  0
SEQEND
  0
POLYLINE
  8
PG_SOLDERMASK_TOP
 66
1
 70
0
 40
0.000000
 41
0.000000
 39
0.000000
  0
VERTEX
  8
PG_SOLDERMASK_TOP
 10
14.850000
 20
25.750000
 40
0.150000
 41
0.150000
 42
0.000000
  0
VERTEX
  8
PG_SOLDERMASK_TOP
 10
14.850000
 20
26.750000
 40
0.150000
 41
0.150000
 42
0.000000
  0
SEQEND
  0
POLYLINE
  8
PG_SOLDERMASK_TOP
 66
1
 70
0
 40
0.000000
 41
0.000000
 39
0.000000
  0
VERTEX
  8
PG_SOLDERMASK_TOP
 10
14.850000
 20
26.750000
 40
0.150000
 41
0.150000
 42
0.000000
  0
VERTEX
  8
PG_SOLDERMASK_TOP
 10
15.850000
 20
26.750000
 40
0.150000
 41
0.150000
 42
0.000000
  0
SEQEND
  0
POLYLINE
  8
PG_SOLDERMASK_TOP
 66
1
 70
0
 40
0.000000
 41
0.000000
 39
0.000000
  0
VERTEX
  8
PG_SOLDERMASK_TOP
 10
30.150000
 20
19.250000
 40
0.150000
 41
0.150000
 42
0.000000
  0
VERTEX
  8
PG_SOLDERMASK_TOP
 10
30.150000
 20
18.250000
 40
0.150000
 41
0.150000
 42
0.000000
  0
SEQEND
  0
POLYLINE
  8
PG_SOLDERMASK_TOP
 66
1
 70
0
 40
0.000000
 41
0.000000
 39
0.000000
  0
VERTEX
  8
PG_SOLDERMASK_TOP
 10
30.150000
 20
18.250000
 40
0.150000
 41
0.150000
 42
0.000000
  0
VERTEX
  8
PG_SOLDERMASK_TOP
 10
29.150000
 20
18.250000
 40
0.150000
 41
0.150000
 42
0.000000
  0
SEQEND
  0
POLYLINE
  8
PG_SOLDERMASK_TOP
 66
1
 70
0
 40
0.000000
 41
0.000000
 39
0.000000
  0
VERTEX
  8
PG_SOLDERMASK_TOP
 10
29.150000
 20
26.750000
 40
0.150000
 41
0.150000
 42
0.000000
  0
VERTEX
  8
PG_SOLDERMASK_TOP
 10
30.150000
 20
26.750000
 40
0.150000
 41
0.150000
 42
0.000000
  0
SEQEND
  0
POLYLINE
  8
PG_SOLDERMASK_TOP
 66
1
 70
0
 40
0.000000
 41
0.000000
 39
0.000000
  0
VERTEX
  8
PG_SOLDERMASK_TOP
 10
30.150000
 20
26.750000
 40
0.150000
 41
0.150000
 42
0.000000
  0
VERTEX
  8
PG_SOLDERMASK_TOP
 10
30.150000
 20
25.750000
 40
0.150000
 41
0.150000
 42
0.000000
  0
SEQEND
  0
POLYLINE
  8
PG_SOLDERMASK_TOP
 66
1
 70
1
 40
0.000000
 41
0.000000
 39
0.000000
  0
VERTEX
  8
PG_SOLDERMASK_TOP
 10
31.400000
 20
22.500000
 40
0.000000
 41
0.000000
 42
1.000000
  0
VERTEX
  8
PG_SOLDERMASK_TOP
 10
30.900000
 20
22.500000
 40
0.000000
 41
0.000000
 42
1.000000
  0
SEQEND
  0
POLYLINE
  8
PG_SOLDERMASK_TOP
 66
1
 70
1
 40
0.000000
 41
0.000000
 39
0.000000
  0
VERTEX
  8
PG_SOLDERMASK_TOP
 10
14.100000
 20
22.500000
 40
0.000000
 41
0.000000
 42
1.000000
  0
VERTEX
  8
PG_SOLDERMASK_TOP
 10
13.600000
 20
22.500000
 40
0.000000
 41
0.000000
 42
1.000000
  0
SEQEND
  0
TEXT
  8
RD_SILKSCREEN_TOP
 10
14.750000
 20
27.500000
 11
0.000000
 21
0.000000
 40
0.800000
 41
1.250000
 50
0.000000
  7
STANDARD
 71
0
 72
0
  1
CON
 73
0
  0
CIRCLE
  8
PIN_TOP
 10
12.000000
 20
27.500000
 40
1.250000
  0
CIRCLE
  8
PIN_SOLDERMASK_TOP
 10
12.000000
 20
27.500000
 40
1.300000
  0
TEXT
  8
RD_SILKSCREEN_TOP
 10
10.250000
 20
29.500000
 11
0.000000
 21
0.000000
 40
0.800000
 41
1.250000
 50
0.000000
  7
STANDARD
 71
0
 72
0
  1
T/P-
 73
0
  0
CIRCLE
  8
PIN_TOP
 10
12.000000
 20
17.500000
 40
1.250000
  0
CIRCLE
  8
PIN_SOLDERMASK_TOP
 10
12.000000
 20
17.500000
 40
1.300000
  0
TEXT
  8
RD_SILKSCREEN_TOP
 10
10.250000
 20
19.500000
 11
0.000000
 21
0.000000
 40
0.800000
 41
1.250000
 50
0.000000
  7
STANDARD
 71
0
 72
0
  1
T/P+
 73
0
  0
POLYLINE
  8
PIN_TOP
 66
1
 70
1
 40
0.000000
 41
0.000000
 39
0.000000
  0
VERTEX
  8
PIN_TOP
 10
127.630000
 20
23.630000
 40
0.000000
 41
0.000000
 42
0.000000
  0
VERTEX
  8
PIN_TOP
 10
127.630000
 20
21.370000
 40
0.000000
 41
0.000000
 42
0.000000
  0
VERTEX
  8
PIN_TOP
 10
125.470000
 20
21.370000
 40
0.000000
 41
0.000000
 42
0.000000
  0
VERTEX
  8
PIN_TOP
 10
125.470000
 20
23.630000
 40
0.000000
 41
0.000000
 42
0.000000
  0
SEQEND
  0
POLYLINE
  8
PIN_SOLDERMASK_TOP
 66
1
 70
1
 40
0.000000
 41
0.000000
 39
0.000000
  0
VERTEX
  8
PIN_SOLDERMASK_TOP
 10
127.680000
 20
23.680000
 40
0.000000
 41
0.000000
 42
0.000000
  0
VERTEX
  8
PIN_SOLDERMASK_TOP
 10
127.680000
 20
21.320000
 40
0.000000
 41
0.000000
 42
0.000000
  0
VERTEX
  8
PIN_SOLDERMASK_TOP
 10
125.420000
 20
21.320000
 40
0.000000
 41
0.000000
 42
0.000000
  0
VERTEX
  8
PIN_SOLDERMASK_TOP
 10
125.420000
 20
23.680000
 40
0.000000
 41
0.000000
 42
0.000000
  0
SEQEND
  0
POLYLINE
  8
PIN_TOP
 66
1
 70
1
 40
0.000000
 41
0.000000
 39
0.000000
  0
VERTEX
  8
PIN_TOP
 10
122.730000
 20
23.630000
 40
0.000000
 41
0.000000
 42
0.000000
  0
VERTEX
  8
PIN_TOP
 10
122.730000
 20
21.370000
 40
0.000000
 41
0.000000
 42
0.000000
  0
VERTEX
  8
PIN_TOP
 10
120.570000
 20
21.370000
 40
0.000000
 41
0.000000
 42
0.000000
  0
VERTEX
  8
PIN_TOP
 10
120.570000
 20
23.630000
 40
0.000000
 41
0.000000
 42
0.000000
  0
SEQEND
  0
POLYLINE
  8
PIN_SOLDERMASK_TOP
 66
1
 70
1
 40
0.000000
 41
0.000000
 39
0.000000
  0
VERTEX
  8
PIN_SOLDERMASK_TOP
 10
122.780000
 20
23.680000
 40
0.000000
 41
0.000000
 42
0.000000
  0
VERTEX
  8
PIN_SOLDERMASK_TOP
 10
122.780000
 20
21.320000
 40
0.000000
 41
0.000000
 42
0.000000
  0
VERTEX
  8
PIN_SOLDERMASK_TOP
 10
120.520000
 20
21.320000
 40
0.000000
 41
0.000000
 42
0.000000
  0
VERTEX
  8
PIN_SOLDERMASK_TOP
 10
120.520000
 20
23.680000
 40
0.000000
 41
0.000000
 42
0.000000
  0
SEQEND
  0
POLYLINE
  8
PG_SILKSCREEN_TOP
 66
1
 70
0
 40
0.000000
 41
0.000000
 39
0.000000
  0
VERTEX
  8
PG_SILKSCREEN_TOP
 10
122.920000
 20
22.500000
 40
0.250000
 41
0.250000
 42
0.000000
  0
VERTEX
  8
PG_SILKSCREEN_TOP
 10
123.580000
 20
22.500000
 40
0.250000
 41
0.250000
 42
0.000000
  0
VERTEX
  8
PG_SILKSCREEN_TOP
 10
123.580000
 20
21.444000
 40
0.250000
 41
0.250000
 42
0.000000
  0
VERTEX
  8
PG_SILKSCREEN_TOP
 10
124.636000
 20
22.500000
 40
0.250000
 41
0.250000
 42
0.000000
  0
VERTEX
  8
PG_SILKSCREEN_TOP
 10
123.580000
 20
23.556000
 40
0.250000
 41
0.250000
 42
0.000000
  0
VERTEX
  8
PG_SILKSCREEN_TOP
 10
123.580000
 20
22.500000
 40
0.250000
 41
0.250000
 42
0.000000
  0
SEQEND
  0
POLYLINE
  8
PG_SILKSCREEN_TOP
 66
1
 70
0
 40
0.000000
 41
0.000000
 39
0.000000
  0
VERTEX
  8
PG_SILKSCREEN_TOP
 10
124.900000
 20
23.556000
 40
0.250000
 41
0.250000
 42
0.000000
  0
VERTEX
  8
PG_SILKSCREEN_TOP
 10
124.900000
 20
21.444000
 40
0.250000
 41
0.250000
 42
0.000000
  0
SEQEND
  0
POLYLINE
  8
PG_SILKSCREEN_TOP
 66
1
 70
0
 40
0.000000
 41
0.000000
 39
0.000000
  0
VERTEX
  8
PG_SILKSCREEN_TOP
 10
128.030000
 20
21.070000
 40
0.250000
 41
0.250000
 42
0.000000
  0
VERTEX
  8
PG_SILKSCREEN_TOP
 10
128.030000
 20
23.930000
 40
0.250000
 41
0.250000
 42
0.000000
  0
SEQEND
  0
POLYLINE
  8
PG_SILKSCREEN_TOP
 66
1
 70
0
 40
0.000000
 41
0.000000
 39
0.000000
  0
VERTEX
  8
PG_SILKSCREEN_TOP
 10
126.550000
 20
23.780000
 40
0.150000
 41
0.150000
 42
0.000000
  0
VERTEX
  8
PG_SILKSCREEN_TOP
 10
126.550000
 20
24.130000
 40
0.150000
 41
0.150000
 42
0.000000
  0
VERTEX
  8
PG_SILKSCREEN_TOP
 10
121.650000
 20
24.130000
 40
0.150000
 41
0.150000
 42
0.000000
  0
VERTEX
  8
PG_SILKSCREEN_TOP
 10
121.650000
 20
23.780000
 40
0.150000
 41
0.150000
 42
0.000000
  0
SEQEND
  0
POLYLINE
  8
PG_SILKSCREEN_TOP
 66
1
 70
0
 40
0.000000
 41
0.000000
 39
0.000000
  0
VERTEX
  8
PG_SILKSCREEN_TOP
 10
121.650000
 20
21.220000
 40
0.150000
 41
0.150000
 42
0.000000
  0
VERTEX
  8
PG_SILKSCREEN_TOP
 10
121.650000
 20
20.870000
 40
0.150000
 41
0.150000
 42
0.000000
  0
VERTEX
  8
PG_SILKSCREEN_TOP
 10
126.550000
 20
20.870000
 40
0.150000
 41
0.150000
 42
0.000000
  0
VERTEX
  8
PG_SILKSCREEN_TOP
 10
126.550000
 20
21.220000
 40
0.150000
 41
0.150000
 42
0.000000
  0
SEQEND
  0
POLYLINE
  8
PG_SILKSCREEN_TOP
 66
1
 70
1
 40
0.000000
 41
0.000000
 39
0.000000
  0
VERTEX
  8
PG_SILKSCREEN_TOP
 10
126.200000
 20
20.970000
 40
0.000000
 41
0.000000
 42
0.000000
  0
VERTEX
  8
PG_SILKSCREEN_TOP
 10
126.200000
 20
21.270000
 40
0.000000
 41
0.000000
 42
0.000000
  0
VERTEX
  8
PG_SILKSCREEN_TOP
 10
125.800000
 20
21.270000
 40
0.000000
 41
0.000000
 42
0.000000
  0
VERTEX
  8
PG_SILKSCREEN_TOP
 10
125.800000
 20
20.970000
 40
0.000000
 41
0.000000
 42
0.000000
  0
SEQEND
  0
POLYLINE
  8
PG_SILKSCREEN_TOP
 66
1
 70
1
 40
0.000000
 41
0.000000
 39
0.000000
  0
VERTEX
  8
PG_SILKSCREEN_TOP
 10
126.200000
 20
23.730000
 40
0.000000
 41
0.000000
 42
0.000000
  0
VERTEX
  8
PG_SILKSCREEN_TOP
 10
126.200000
 20
24.030000
 40
0.000000
 41
0.000000
 42
0.000000
  0
VERTEX
  8
PG_SILKSCREEN_TOP
 10
125.800000
 20
24.030000
 40
0.000000
 41
0.000000
 42
0.000000
  0
VERTEX
  8
PG_SILKSCREEN_TOP
 10
125.800000
 20
23.730000
 40
0.000000
 41
0.000000
 42
0.000000
  0
SEQEND
  0
TEXT
  8
RD_SILKSCREEN_TOP
 10
123.250000
 20
25.000000
 11
0.000000
 21
0.000000
 40
0.800000
 41
1.250000
 50
0.000000
  7
STANDARD
 71
0
 72
0
  1
TD
 73
0
  0
POLYLINE
  8
BG_SILKSCREEN_TOP
 66
1
 70
0
 40
0.000000
 41
0.000000
 39
0.000000
  0
VERTEX
  8
BG_SILKSCREEN_TOP
 10
80.000000
 20
17.250000
 40
0.000000
 41
0.000000
 42
0.000000
  0
VERTEX
  8
BG_SILKSCREEN_TOP
 10
80.000000
 20
24.250000
 40
0.000000
 41
0.000000
 42
0.000000
  0
SEQEND
  0
POLYLINE
  8
BG_SILKSCREEN_TOP
 66
1
 70
0
 40
0.000000
 41
0.000000
 39
0.000000
  0
VERTEX
  8
BG_SILKSCREEN_TOP
 10
92.000000
 20
17.250000
 40
0.000000
 41
0.000000
 42
0.000000
  0
VERTEX
  8
BG_SILKSCREEN_TOP
 10
80.000000
 20
17.250000
 40
0.000000
 41
0.000000
 42
0.000000
  0
SEQEND
  0
POLYLINE
  8
BG_SILKSCREEN_TOP
 66
1
 70
0
 40
0.000000
 41
0.000000
 39
0.000000
  0
VERTEX
  8
BG_SILKSCREEN_TOP
 10
92.000000
 20
24.250000
 40
0.000000
 41
0.000000
 42
0.000000
  0
VERTEX
  8
BG_SILKSCREEN_TOP
 10
92.000000
 20
17.250000
 40
0.000000
 41
0.000000
 42
0.000000
  0
SEQEND
  0
POLYLINE
  8
BG_SILKSCREEN_TOP
 66
1
 70
0
 40
0.000000
 41
0.000000
 39
0.000000
  0
VERTEX
  8
BG_SILKSCREEN_TOP
 10
80.000000
 20
24.250000
 40
0.000000
 41
0.000000
 42
0.000000
  0
VERTEX
  8
BG_SILKSCREEN_TOP
 10
92.000000
 20
24.250000
 40
0.000000
 41
0.000000
 42
0.000000
  0
SEQEND
  0
POLYLINE
  8
MA_NCLEGEND-1-2
 66
1
 70
0
 40
0.000000
 41
0.000000
 39
0.000000
  0
VERTEX
  8
MA_NCLEGEND-1-2
 10
0.000000
 20
-19.250000
 40
0.000000
 41
0.000000
 42
0.000000
  0
VERTEX
  8
MA_NCLEGEND-1-2
 10
42.200000
 20
-19.250000
 40
0.000000
 41
0.000000
 42
0.000000
  0
SEQEND
  0
POLYLINE
  8
MA_NCLEGEND-1-2
 66
1
 70
0
 40
0.000000
 41
0.000000
 39
0.000000
  0
VERTEX
  8
MA_NCLEGEND-1-2
 10
0.000000
 20
-14.000000
 40
0.000000
 41
0.000000
 42
0.000000
  0
VERTEX
  8
MA_NCLEGEND-1-2
 10
42.200000
 20
-14.000000
 40
0.000000
 41
0.000000
 42
0.000000
  0
SEQEND
  0
POLYLINE
  8
MA_NCLEGEND-1-2
 66
1
 70
0
 40
0.000000
 41
0.000000
 39
0.000000
  0
VERTEX
  8
MA_NCLEGEND-1-2
 10
35.500000
 20
-11.000000
 40
0.000000
 41
0.000000
 42
0.000000
  0
VERTEX
  8
MA_NCLEGEND-1-2
 10
35.500000
 20
-24.500000
 40
0.000000
 41
0.000000
 42
0.000000
  0
SEQEND
  0
POLYLINE
  8
MA_NCLEGEND-1-2
 66
1
 70
0
 40
0.000000
 41
0.000000
 39
0.000000
  0
VERTEX
  8
MA_NCLEGEND-1-2
 10
24.400000
 20
-11.000000
 40
0.000000
 41
0.000000
 42
0.000000
  0
VERTEX
  8
MA_NCLEGEND-1-2
 10
24.400000
 20
-24.500000
 40
0.000000
 41
0.000000
 42
0.000000
  0
SEQEND
  0
POLYLINE
  8
MA_NCLEGEND-1-2
 66
1
 70
0
 40
0.000000
 41
0.000000
 39
0.000000
  0
VERTEX
  8
MA_NCLEGEND-1-2
 10
7.800000
 20
-11.000000
 40
0.000000
 41
0.000000
 42
0.000000
  0
VERTEX
  8
MA_NCLEGEND-1-2
 10
7.800000
 20
-24.500000
 40
0.000000
 41
0.000000
 42
0.000000
  0
SEQEND
  0
POLYLINE
  8
MA_NCLEGEND-1-2
 66
1
 70
0
 40
0.000000
 41
0.000000
 39
0.000000
  0
VERTEX
  8
MA_NCLEGEND-1-2
 10
0.000000
 20
-11.000000
 40
0.000000
 41
0.000000
 42
0.000000
  0
VERTEX
  8
MA_NCLEGEND-1-2
 10
42.200000
 20
-11.000000
 40
0.000000
 41
0.000000
 42
0.000000
  0
SEQEND
  0
POLYLINE
  8
MA_NCLEGEND-1-2
 66
1
 70
0
 40
0.000000
 41
0.000000
 39
0.000000
  0
VERTEX
  8
MA_NCLEGEND-1-2
 10
0.000000
 20
-8.000000
 40
0.000000
 41
0.000000
 42
0.000000
  0
VERTEX
  8
MA_NCLEGEND-1-2
 10
42.200000
 20
-8.000000
 40
0.000000
 41
0.000000
 42
0.000000
  0
SEQEND
  0
POLYLINE
  8
BG_OUTLINE
 66
1
 70
0
 40
0.000000
 41
0.000000
 39
0.000000
  0
VERTEX
  8
BG_OUTLINE
 10
0.000000
 20
19.000000
 40
0.100000
 41
0.100000
 42
0.000000
  0
VERTEX
  8
BG_OUTLINE
 10
0.000000
 20
0.000000
 40
0.100000
 41
0.100000
 42
0.000000
  0
VERTEX
  8
BG_OUTLINE
 10
146.600000
 20
0.000000
 40
0.100000
 41
0.100000
 42
0.000000
  0
VERTEX
  8
BG_OUTLINE
 10
146.600000
 20
45.000000
 40
0.100000
 41
0.100000
 42
0.000000
  0
VERTEX
  8
BG_OUTLINE
 10
0.000000
 20
45.000000
 40
0.100000
 41
0.100000
 42
0.000000
  0
VERTEX
  8
BG_OUTLINE
 10
0.000000
 20
26.000000
 40
0.100000
 41
0.100000
 42
0.000000
  0
VERTEX
  8
BG_OUTLINE
 10
6.000000
 20
26.000000
 40
0.100000
 41
0.100000
 42
-0.414214
  0
VERTEX
  8
BG_OUTLINE
 10
8.000000
 20
24.000000
 40
0.100000
 41
0.100000
 42
0.000000
  0
VERTEX
  8
BG_OUTLINE
 10
8.000000
 20
21.000000
 40
0.100000
 41
0.100000
 42
-0.414214
  0
VERTEX
  8
BG_OUTLINE
 10
6.000000
 20
19.000000
 40
0.100000
 41
0.100000
 42
0.000000
  0
VERTEX
  8
BG_OUTLINE
 10
0.000000
 20
19.000000
 40
0.100000
 41
0.100000
 42
0.000000
  0
SEQEND
  0
POLYLINE
  8
BG_SILKSCREEN_TOP
 66
1
 70
1
 40
0.000000
 41
0.000000
 39
0.000000
  0
VERTEX
  8
BG_SILKSCREEN_TOP
 10
82.389800
 20
27.813600
 40
0.000000
 41
0.000000
 42
0.000000
  0
VERTEX
  8
BG_SILKSCREEN_TOP
 10
82.387200
 20
27.773800
 40
0.000000
 41
0.000000
 42
0.000000
  0
VERTEX
  8
BG_SILKSCREEN_TOP
 10
82.384400
 20
27.733800
 40
0.000000
 41
0.000000
 42
0.000000
  0
VERTEX
  8
BG_SILKSCREEN_TOP
 10
82.381800
 20
27.693800
 40
0.000000
 41
0.000000
 42
0.000000
  0
VERTEX
  8
BG_SILKSCREEN_TOP
 10
82.379000
 20
27.653800
 40
0.000000
 41
0.000000
 42
0.000000
  0
VERTEX
  8
BG_SILKSCREEN_TOP
 10
82.373800
 20
27.573800
 40
0.000000
 41
0.000000
 42
0.000000
  0
VERTEX
  8
BG_SILKSCREEN_TOP
 10
82.371800
 20
27.533800
 40
0.000000
 41
0.000000
 42
0.000000
  0
VERTEX
  8
BG_SILKSCREEN_TOP
 10
82.370000
 20
27.493800
 40
0.000000
 41
0.000000
 42
0.000000
  0
VERTEX
  8
BG_SILKSCREEN_TOP
 10
82.363000
 20
27.293800
 40
0.000000
 41
0.000000
 42
0.000000
  0
VERTEX
  8
BG_SILKSCREEN_TOP
 10
82.361800
 20
27.253600
 40
0.000000
 41
0.000000
 42
0.000000
  0
VERTEX
  8
BG_SILKSCREEN_TOP
 10
82.360400
 20
27.213600
 40
0.000000
 41
0.000000
 42
0.000000
  0
VERTEX
  8
BG_SILKSCREEN_TOP
 10
82.356800
 20
27.093600
 40
0.000000
 41
0.000000
 42
0.000000
  0
VERTEX
  8
BG_SILKSCREEN_TOP
 10
82.355600
 20
27.053400
 40
0.000000
 41
0.000000
 42
0.000000
  0
VERTEX
  8
BG_SILKSCREEN_TOP
 10
82.354600
 20
27.013400
 40
0.000000
 41
0.000000
 42
0.000000
  0
VERTEX
  8
BG_SILKSCREEN_TOP
 10
82.353400
 20
26.973400
 40
0.000000
 41
0.000000
 42
0.000000
  0
VERTEX
  8
BG_SILKSCREEN_TOP
 10
82.351400
 20
26.893400
 40
0.000000
 41
0.000000
 42
0.000000
  0
VERTEX
  8
BG_SILKSCREEN_TOP
 10
82.350400
 20
26.853200
 40
0.000000
 41
0.000000
 42
0.000000
  0
VERTEX
  8
BG_SILKSCREEN_TOP
 10
82.349400
 20
26.813200
 40
0.000000
 41
0.000000
 42
0.000000
  0
VERTEX
  8
BG_SILKSCREEN_TOP
 10
82.348600
 20
26.773200
 40
0.000000
 41
0.000000
 42
0.000000
  0
VERTEX
  8
BG_SILKSCREEN_TOP
 10
82.347600
 20
26.733200
 40
0.000000
 41
0.000000
 42
0.000000
  0
VERTEX
  8
BG_SILKSCREEN_TOP
 10
82.346800
 20
26.693200
 40
0.000000
 41
0.000000
 42
0.000000
  0
VERTEX
  8
BG_SILKSCREEN_TOP
 10
82.345800
 20
26.653000
 40
0.000000
 41
0.000000
 42
0.000000
  0
VERTEX
  8
BG_SILKSCREEN_TOP
 10
82.343400
 20
26.533000
 40
0.000000
 41
0.000000
 42
0.000000
  0
VERTEX
  8
BG_SILKSCREEN_TOP
 10
82.342600
 20
26.492800
 40
0.000000
 41
0.000000
 42
0.000000
  0
VERTEX
  8
BG_SILKSCREEN_TOP
 10
82.341800
 20
26.452800
 40
0.000000
 41
0.000000
 42
0.000000
  0
VERTEX
  8
BG_SILKSCREEN_TOP
 10
82.340800
 20
26.412800
 40
0.000000
 41
0.000000
 42
0.000000
  0
VERTEX
  8
BG_SILKSCREEN_TOP
 10
82.340000
 20
26.372800
 40
0.000000
 41
0.000000
 42
0.000000
  0
VERTEX
  8
BG_SILKSCREEN_TOP
 10
82.339200
 20
26.332600
 40
0.000000
 41
0.000000
 42
0.000000
  0
VERTEX
  8
BG_SILKSCREEN_TOP
 10
82.336000
 20
26.172600
 40
0.000000
 41
0.000000
 42
0.000000
  0
VERTEX
  8
BG_SILKSCREEN_TOP
 10
82.335000
 20
26.132400
 40
0.000000
 41
0.000000
 42
0.000000
  0
VERTEX
  8
BG_SILKSCREEN_TOP
 10
82.332600
 20
26.012400
 40
0.000000
 41
0.000000
 42
0.000000
  0
VERTEX
  8
BG_SILKSCREEN_TOP
 10
82.331800
 20
25.972200
 40
0.000000
 41
0.000000
 42
0.000000
  0
VERTEX
  8
BG_SILKSCREEN_TOP
 10
82.329400
 20
25.852200
 40
0.000000
 41
0.000000
 42
0.000000
  0
VERTEX
  8
BG_SILKSCREEN_TOP
 10
82.838000
 20
25.852200
 40
0.000000
 41
0.000000
 42
0.000000
  0
VERTEX
  8
BG_SILKSCREEN_TOP
 10
82.838200
 20
25.922400
 40
0.000000
 41
0.000000
 42
0.000000
  0
VERTEX
  8
BG_SILKSCREEN_TOP
 10
82.838200
 20
25.992600
 40
0.000000
 41
0.000000
 42
0.000000
  0
VERTEX
  8
BG_SILKSCREEN_TOP
 10
82.838400
 20
26.062600
 40
0.000000
 41
0.000000
 42
0.000000
  0
VERTEX
  8
BG_SILKSCREEN_TOP
 10
82.838800
 20
26.203000
 40
0.000000
 41
0.000000
 42
0.000000
  0
VERTEX
  8
BG_SILKSCREEN_TOP
 10
82.838800
 20
26.273200
 40
0.000000
 41
0.000000
 42
0.000000
  0
VERTEX
  8
BG_SILKSCREEN_TOP
 10
82.839200
 20
26.413600
 40
0.000000
 41
0.000000
 42
0.000000
  0
VERTEX
  8
BG_SILKSCREEN_TOP
 10
82.839200
 20
26.483800
 40
0.000000
 41
0.000000
 42
0.000000
  0
VERTEX
  8
BG_SILKSCREEN_TOP
 10
82.839600
 20
26.624200
 40
0.000000
 41
0.000000
 42
0.000000
  0
VERTEX
  8
BG_SILKSCREEN_TOP
 10
82.839600
 20
26.694400
 40
0.000000
 41
0.000000
 42
0.000000
  0
VERTEX
  8
BG_SILKSCREEN_TOP
 10
82.840000
 20
26.834800
 40
0.000000
 41
0.000000
 42
0.000000
  0
VERTEX
  8
BG_SILKSCREEN_TOP
 10
82.840400
 20
26.905000
 40
0.000000
 41
0.000000
 42
0.000000
  0
VERTEX
  8
BG_SILKSCREEN_TOP
 10
82.841000
 20
26.975200
 40
0.000000
 41
0.000000
 42
0.000000
  0
VERTEX
  8
BG_SILKSCREEN_TOP
 10
82.841600
 20
27.045200
 40
0.000000
 41
0.000000
 42
0.000000
  0
VERTEX
  8
BG_SILKSCREEN_TOP
 10
82.842400
 20
27.115400
 40
0.000000
 41
0.000000
 42
0.000000
  0
VERTEX
  8
BG_SILKSCREEN_TOP
 10
82.843400
 20
27.185600
 40
0.000000
 41
0.000000
 42
0.000000
  0
VERTEX
  8
BG_SILKSCREEN_TOP
 10
82.844800
 20
27.255800
 40
0.000000
 41
0.000000
 42
0.000000
  0
VERTEX
  8
BG_SILKSCREEN_TOP
 10
82.846600
 20
27.326000
 40
0.000000
 41
0.000000
 42
0.000000
  0
VERTEX
  8
BG_SILKSCREEN_TOP
 10
82.848600
 20
27.396200
 40
0.000000
 41
0.000000
 42
0.000000
  0
VERTEX
  8
BG_SILKSCREEN_TOP
 10
82.850800
 20
27.466200
 40
0.000000
 41
0.000000
 42
0.000000
  0
VERTEX
  8
BG_SILKSCREEN_TOP
 10
82.853200
 20
27.536400
 40
0.000000
 41
0.000000
 42
0.000000
  0
VERTEX
  8
BG_SILKSCREEN_TOP
 10
82.867800
 20
27.573200
 40
0.000000
 41
0.000000
 42
0.000000
  0
VERTEX
  8
BG_SILKSCREEN_TOP
 10
82.883400
 20
27.505000
 40
0.000000
 41
0.000000
 42
0.000000
  0
VERTEX
  8
BG_SILKSCREEN_TOP
 10
82.897000
 20
27.436200
 40
0.000000
 41
0.000000
 42
0.000000
  0
VERTEX
  8
BG_SILKSCREEN_TOP
 10
82.910400
 20
27.367600
 40
0.000000
 41
0.000000
 42
0.000000
  0
VERTEX
  8
BG_SILKSCREEN_TOP
 10
82.924000
 20
27.298800
 40
0.000000
 41
0.000000
 42
0.000000
  0
VERTEX
  8
BG_SILKSCREEN_TOP
 10
82.950400
 20
27.161200
 40
0.000000
 41
0.000000
 42
0.000000
  0
VERTEX
  8
BG_SILKSCREEN_TOP
 10
82.976400
 20
27.023600
 40
0.000000
 41
0.000000
 42
0.000000
  0
VERTEX
  8
BG_SILKSCREEN_TOP
 10
82.989200
 20
26.954800
 40
0.000000
 41
0.000000
 42
0.000000
  0
VERTEX
  8
BG_SILKSCREEN_TOP
 10
83.002000
 20
26.885800
 40
0.000000
 41
0.000000
 42
0.000000
  0
VERTEX
  8
BG_SILKSCREEN_TOP
 10
83.014800
 20
26.817000
 40
0.000000
 41
0.000000
 42
0.000000
  0
VERTEX
  8
BG_SILKSCREEN_TOP
 10
83.027400
 20
26.748000
 40
0.000000
 41
0.000000
 42
0.000000
  0
VERTEX
  8
BG_SILKSCREEN_TOP
 10
83.040000
 20
26.679200
 40
0.000000
 41
0.000000
 42
0.000000
  0
VERTEX
  8
BG_SILKSCREEN_TOP
 10
83.052400
 20
26.610200
 40
0.000000
 41
0.000000
 42
0.000000
  0
VERTEX
  8
BG_SILKSCREEN_TOP
 10
83.065000
 20
26.541400
 40
0.000000
 41
0.000000
 42
0.000000
  0
VERTEX
  8
BG_SILKSCREEN_TOP
 10
83.077400
 20
26.472400
 40
0.000000
 41
0.000000
 42
0.000000
  0
VERTEX
  8
BG_SILKSCREEN_TOP
 10
83.090000
 20
26.403400
 40
0.000000
 41
0.000000
 42
0.000000
  0
VERTEX
  8
BG_SILKSCREEN_TOP
 10
83.102600
 20
26.334600
 40
0.000000
 41
0.000000
 42
0.000000
  0
VERTEX
  8
BG_SILKSCREEN_TOP
 10
83.115000
 20
26.265600
 40
0.000000
 41
0.000000
 42
0.000000
  0
VERTEX
  8
BG_SILKSCREEN_TOP
 10
83.127600
 20
26.196800
 40
0.000000
 41
0.000000
 42
0.000000
  0
VERTEX
  8
BG_SILKSCREEN_TOP
 10
83.140000
 20
26.127800
 40
0.000000
 41
0.000000
 42
0.000000
  0
VERTEX
  8
BG_SILKSCREEN_TOP
 10
83.152600
 20
26.058800
 40
0.000000
 41
0.000000
 42
0.000000
  0
VERTEX
  8
BG_SILKSCREEN_TOP
 10
83.165000
 20
25.990000
 40
0.000000
 41
0.000000
 42
0.000000
  0
VERTEX
  8
BG_SILKSCREEN_TOP
 10
83.177600
 20
25.921000
 40
0.000000
 41
0.000000
 42
0.000000
  0
VERTEX
  8
BG_SILKSCREEN_TOP
 10
83.190200
 20
25.852200
 40
0.000000
 41
0.000000
 42
0.000000
  0
VERTEX
  8
BG_SILKSCREEN_TOP
 10
83.699400
 20
25.852200
 40
0.000000
 41
0.000000
 42
0.000000
  0
VERTEX
  8
BG_SILKSCREEN_TOP
 10
83.712000
 20
25.920600
 40
0.000000
 41
0.000000
 42
0.000000
  0
VERTEX
  8
BG_SILKSCREEN_TOP
 10
83.737200
 20
26.057800
 40
0.000000
 41
0.000000
 42
0.000000
  0
VERTEX
  8
BG_SILKSCREEN_TOP
 10
83.749800
 20
26.126200
 40
0.000000
 41
0.000000
 42
0.000000
  0
VERTEX
  8
BG_SILKSCREEN_TOP
 10
83.762400
 20
26.194800
 40
0.000000
 41
0.000000
 42
0.000000
  0
VERTEX
  8
BG_SILKSCREEN_TOP
 10
83.775000
 20
26.263200
 40
0.000000
 41
0.000000
 42
0.000000
  0
VERTEX
  8
BG_SILKSCREEN_TOP
 10
83.800200
 20
26.400400
 40
0.000000
 41
0.000000
 42
0.000000
  0
VERTEX
  8
BG_SILKSCREEN_TOP
 10
83.812800
 20
26.468800
 40
0.000000
 41
0.000000
 42
0.000000
  0
VERTEX
  8
BG_SILKSCREEN_TOP
 10
83.838000
 20
26.606000
 40
0.000000
 41
0.000000
 42
0.000000
  0
VERTEX
  8
BG_SILKSCREEN_TOP
 10
83.850600
 20
26.674400
 40
0.000000
 41
0.000000
 42
0.000000
  0
VERTEX
  8
BG_SILKSCREEN_TOP
 10
83.863200
 20
26.743000
 40
0.000000
 41
0.000000
 42
0.000000
  0
VERTEX
  8
BG_SILKSCREEN_TOP
 10
83.876000
 20
26.811400
 40
0.000000
 41
0.000000
 42
0.000000
  0
VERTEX
  8
BG_SILKSCREEN_TOP
 10
83.888600
 20
26.880000
 40
0.000000
 41
0.000000
 42
0.000000
  0
VERTEX
  8
BG_SILKSCREEN_TOP
 10
83.901400
 20
26.948400
 40
0.000000
 41
0.000000
 42
0.000000
  0
VERTEX
  8
BG_SILKSCREEN_TOP
 10
83.914200
 20
27.017000
 40
0.000000
 41
0.000000
 42
0.000000
  0
VERTEX
  8
BG_SILKSCREEN_TOP
 10
83.940200
 20
27.153800
 40
0.000000
 41
0.000000
 42
0.000000
  0
VERTEX
  8
BG_SILKSCREEN_TOP
 10
83.953400
 20
27.222400
 40
0.000000
 41
0.000000
 42
0.000000
  0
VERTEX
  8
BG_SILKSCREEN_TOP
 10
83.993000
 20
27.427600
 40
0.000000
 41
0.000000
 42
0.000000
  0
VERTEX
  8
BG_SILKSCREEN_TOP
 10
84.006400
 20
27.496000
 40
0.000000
 41
0.000000
 42
0.000000
  0
VERTEX
  8
BG_SILKSCREEN_TOP
 10
84.021600
 20
27.563800
 40
0.000000
 41
0.000000
 42
0.000000
  0
VERTEX
  8
BG_SILKSCREEN_TOP
 10
84.037800
 20
27.523000
 40
0.000000
 41
0.000000
 42
0.000000
  0
VERTEX
  8
BG_SILKSCREEN_TOP
 10
84.040000
 20
27.453400
 40
0.000000
 41
0.000000
 42
0.000000
  0
VERTEX
  8
BG_SILKSCREEN_TOP
 10
84.046000
 20
27.244600
 40
0.000000
 41
0.000000
 42
0.000000
  0
VERTEX
  8
BG_SILKSCREEN_TOP
 10
84.049600
 20
27.105400
 40
0.000000
 41
0.000000
 42
0.000000
  0
VERTEX
  8
BG_SILKSCREEN_TOP
 10
84.052800
 20
26.966200
 40
0.000000
 41
0.000000
 42
0.000000
  0
VERTEX
  8
BG_SILKSCREEN_TOP
 10
84.054200
 20
26.896600
 40
0.000000
 41
0.000000
 42
0.000000
  0
VERTEX
  8
BG_SILKSCREEN_TOP
 10
84.055600
 20
26.826800
 40
0.000000
 41
0.000000
 42
0.000000
  0
VERTEX
  8
BG_SILKSCREEN_TOP
 10
84.056800
 20
26.757200
 40
0.000000
 41
0.000000
 42
0.000000
  0
VERTEX
  8
BG_SILKSCREEN_TOP
 10
84.057800
 20
26.687600
 40
0.000000
 41
0.000000
 42
0.000000
  0
VERTEX
  8
BG_SILKSCREEN_TOP
 10
84.060200
 20
26.478800
 40
0.000000
 41
0.000000
 42
0.000000
  0
VERTEX
  8
BG_SILKSCREEN_TOP
 10
84.060800
 20
26.409000
 40
0.000000
 41
0.000000
 42
0.000000
  0
VERTEX
  8
BG_SILKSCREEN_TOP
 10
84.061400
 20
26.339400
 40
0.000000
 41
0.000000
 42
0.000000
  0
VERTEX
  8
BG_SILKSCREEN_TOP
 10
84.062600
 20
26.130600
 40
0.000000
 41
0.000000
 42
0.000000
  0
VERTEX
  8
BG_SILKSCREEN_TOP
 10
84.062800
 20
26.061000
 40
0.000000
 41
0.000000
 42
0.000000
  0
VERTEX
  8
BG_SILKSCREEN_TOP
 10
84.063000
 20
25.991200
 40
0.000000
 41
0.000000
 42
0.000000
  0
VERTEX
  8
BG_SILKSCREEN_TOP
 10
84.063400
 20
25.852000
 40
0.000000
 41
0.000000
 42
0.000000
  0
VERTEX
  8
BG_SILKSCREEN_TOP
 10
84.192200
 20
25.852000
 40
0.000000
 41
0.000000
 42
0.000000
  0
VERTEX
  8
BG_SILKSCREEN_TOP
 10
84.202200
 20
25.852200
 40
0.000000
 41
0.000000
 42
0.000000
  0
VERTEX
  8
BG_SILKSCREEN_TOP
 10
84.559200
 20
25.852200
 40
0.000000
 41
0.000000
 42
0.000000
  0
VERTEX
  8
BG_SILKSCREEN_TOP
 10
84.558200
 20
25.909200
 40
0.000000
 41
0.000000
 42
0.000000
  0
VERTEX
  8
BG_SILKSCREEN_TOP
 10
84.557200
 20
25.966400
 40
0.000000
 41
0.000000
 42
0.000000
  0
VERTEX
  8
BG_SILKSCREEN_TOP
 10
84.556200
 20
26.023400
 40
0.000000
 41
0.000000
 42
0.000000
  0
VERTEX
  8
BG_SILKSCREEN_TOP
 10
84.555000
 20
26.080600
 40
0.000000
 41
0.000000
 42
0.000000
  0
VERTEX
  8
BG_SILKSCREEN_TOP
 10
84.553000
 20
26.194600
 40
0.000000
 41
0.000000
 42
0.000000
  0
VERTEX
  8
BG_SILKSCREEN_TOP
 10
84.551800
 20
26.251800
 40
0.000000
 41
0.000000
 42
0.000000
  0
VERTEX
  8
BG_SILKSCREEN_TOP
 10
84.550800
 20
26.308800
 40
0.000000
 41
0.000000
 42
0.000000
  0
VERTEX
  8
BG_SILKSCREEN_TOP
 10
84.549800
 20
26.366000
 40
0.000000
 41
0.000000
 42
0.000000
  0
VERTEX
  8
BG_SILKSCREEN_TOP
 10
84.548800
 20
26.423000
 40
0.000000
 41
0.000000
 42
0.000000
  0
VERTEX
  8
BG_SILKSCREEN_TOP
 10
84.547600
 20
26.480200
 40
0.000000
 41
0.000000
 42
0.000000
  0
VERTEX
  8
BG_SILKSCREEN_TOP
 10
84.546600
 20
26.537200
 40
0.000000
 41
0.000000
 42
0.000000
  0
VERTEX
  8
BG_SILKSCREEN_TOP
 10
84.545600
 20
26.594400
 40
0.000000
 41
0.000000
 42
0.000000
  0
VERTEX
  8
BG_SILKSCREEN_TOP
 10
84.544400
 20
26.651400
 40
0.000000
 41
0.000000
 42
0.000000
  0
VERTEX
  8
BG_SILKSCREEN_TOP
 10
84.543400
 20
26.708600
 40
0.000000
 41
0.000000
 42
0.000000
  0
VERTEX
  8
BG_SILKSCREEN_TOP
 10
84.542400
 20
26.765600
 40
0.000000
 41
0.000000
 42
0.000000
  0
VERTEX
  8
BG_SILKSCREEN_TOP
 10
84.541400
 20
26.822800
 40
0.000000
 41
0.000000
 42
0.000000
  0
VERTEX
  8
BG_SILKSCREEN_TOP
 10
84.540200
 20
26.879800
 40
0.000000
 41
0.000000
 42
0.000000
  0
VERTEX
  8
BG_SILKSCREEN_TOP
 10
84.539200
 20
26.937000
 40
0.000000
 41
0.000000
 42
0.000000
  0
VERTEX
  8
BG_SILKSCREEN_TOP
 10
84.536800
 20
27.051000
 40
0.000000
 41
0.000000
 42
0.000000
  0
VERTEX
  8
BG_SILKSCREEN_TOP
 10
84.535600
 20
27.108200
 40
0.000000
 41
0.000000
 42
0.000000
  0
VERTEX
  8
BG_SILKSCREEN_TOP
 10
84.534400
 20
27.165200
 40
0.000000
 41
0.000000
 42
0.000000
  0
VERTEX
  8
BG_SILKSCREEN_TOP
 10
84.533000
 20
27.222400
 40
0.000000
 41
0.000000
 42
0.000000
  0
VERTEX
  8
BG_SILKSCREEN_TOP
 10
84.531600
 20
27.279400
 40
0.000000
 41
0.000000
 42
0.000000
  0
VERTEX
  8
BG_SILKSCREEN_TOP
 10
84.530200
 20
27.336600
 40
0.000000
 41
0.000000
 42
0.000000
  0
VERTEX
  8
BG_SILKSCREEN_TOP
 10
84.528800
 20
27.393600
 40
0.000000
 41
0.000000
 42
0.000000
  0
VERTEX
  8
BG_SILKSCREEN_TOP
 10
84.527200
 20
27.450600
 40
0.000000
 41
0.000000
 42
0.000000
  0
VERTEX
  8
BG_SILKSCREEN_TOP
 10
84.525600
 20
27.507800
 40
0.000000
 41
0.000000
 42
0.000000
  0
VERTEX
  8
BG_SILKSCREEN_TOP
 10
84.523800
 20
27.564800
 40
0.000000
 41
0.000000
 42
0.000000
  0
VERTEX
  8
BG_SILKSCREEN_TOP
 10
84.522200
 20
27.622000
 40
0.000000
 41
0.000000
 42
0.000000
  0
VERTEX
  8
BG_SILKSCREEN_TOP
 10
84.518600
 20
27.736000
 40
0.000000
 41
0.000000
 42
0.000000
  0
VERTEX
  8
BG_SILKSCREEN_TOP
 10
84.517000
 20
27.793200
 40
0.000000
 41
0.000000
 42
0.000000
  0
VERTEX
  8
BG_SILKSCREEN_TOP
 10
84.489600
 20
27.836000
 40
0.000000
 41
0.000000
 42
0.000000
  0
VERTEX
  8
BG_SILKSCREEN_TOP
 10
84.437400
 20
27.842800
 40
0.000000
 41
0.000000
 42
0.000000
  0
VERTEX
  8
BG_SILKSCREEN_TOP
 10
84.385000
 20
27.846200
 40
0.000000
 41
0.000000
 42
0.000000
  0
VERTEX
  8
BG_SILKSCREEN_TOP
 10
84.332400
 20
27.848000
 40
0.000000
 41
0.000000
 42
0.000000
  0
VERTEX
  8
BG_SILKSCREEN_TOP
 10
84.279800
 20
27.848000
 40
0.000000
 41
0.000000
 42
0.000000
  0
VERTEX
  8
BG_SILKSCREEN_TOP
 10
84.227200
 20
27.847600
 40
0.000000
 41
0.000000
 42
0.000000
  0
VERTEX
  8
BG_SILKSCREEN_TOP
 10
84.174800
 20
27.847200
 40
0.000000
 41
0.000000
 42
0.000000
  0
VERTEX
  8
BG_SILKSCREEN_TOP
 10
83.964400
 20
27.843200
 40
0.000000
 41
0.000000
 42
0.000000
  0
VERTEX
  8
BG_SILKSCREEN_TOP
 10
83.912000
 20
27.842200
 40
0.000000
 41
0.000000
 42
0.000000
  0
VERTEX
  8
BG_SILKSCREEN_TOP
 10
83.859400
 20
27.841200
 40
0.000000
 41
0.000000
 42
0.000000
  0
VERTEX
  8
BG_SILKSCREEN_TOP
 10
83.806800
 20
27.840000
 40
0.000000
 41
0.000000
 42
0.000000
  0
VERTEX
  8
BG_SILKSCREEN_TOP
 10
83.701600
 20
27.838000
 40
0.000000
 41
0.000000
 42
0.000000
  0
VERTEX
  8
BG_SILKSCREEN_TOP
 10
83.692000
 20
27.777000
 40
0.000000
 41
0.000000
 42
0.000000
  0
VERTEX
  8
BG_SILKSCREEN_TOP
 10
83.682200
 20
27.716200
 40
0.000000
 41
0.000000
 42
0.000000
  0
VERTEX
  8
BG_SILKSCREEN_TOP
 10
83.643000
 20
27.472200
 40
0.000000
 41
0.000000
 42
0.000000
  0
VERTEX
  8
BG_SILKSCREEN_TOP
 10
83.633200
 20
27.411400
 40
0.000000
 41
0.000000
 42
0.000000
  0
VERTEX
  8
BG_SILKSCREEN_TOP
 10
83.594000
 20
27.167400
 40
0.000000
 41
0.000000
 42
0.000000
  0
VERTEX
  8
BG_SILKSCREEN_TOP
 10
83.584200
 20
27.106600
 40
0.000000
 41
0.000000
 42
0.000000
  0
VERTEX
  8
BG_SILKSCREEN_TOP
 10
83.574400
 20
27.045600
 40
0.000000
 41
0.000000
 42
0.000000
  0
VERTEX
  8
BG_SILKSCREEN_TOP
 10
83.554400
 20
26.923600
 40
0.000000
 41
0.000000
 42
0.000000
  0
VERTEX
  8
BG_SILKSCREEN_TOP
 10
83.544400
 20
26.862800
 40
0.000000
 41
0.000000
 42
0.000000
  0
VERTEX
  8
BG_SILKSCREEN_TOP
 10
83.534200
 20
26.801800
 40
0.000000
 41
0.000000
 42
0.000000
  0
VERTEX
  8
BG_SILKSCREEN_TOP
 10
83.524000
 20
26.741000
 40
0.000000
 41
0.000000
 42
0.000000
  0
VERTEX
  8
BG_SILKSCREEN_TOP
 10
83.513600
 20
26.680200
 40
0.000000
 41
0.000000
 42
0.000000
  0
VERTEX
  8
BG_SILKSCREEN_TOP
 10
83.503000
 20
26.619400
 40
0.000000
 41
0.000000
 42
0.000000
  0
VERTEX
  8
BG_SILKSCREEN_TOP
 10
83.459800
 20
26.376200
 40
0.000000
 41
0.000000
 42
0.000000
  0
VERTEX
  8
BG_SILKSCREEN_TOP
 10
83.433200
 20
26.350400
 40
0.000000
 41
0.000000
 42
0.000000
  0
VERTEX
  8
BG_SILKSCREEN_TOP
 10
83.420200
 20
26.409400
 40
0.000000
 41
0.000000
 42
0.000000
  0
VERTEX
  8
BG_SILKSCREEN_TOP
 10
83.409400
 20
26.468800
 40
0.000000
 41
0.000000
 42
0.000000
  0
VERTEX
  8
BG_SILKSCREEN_TOP
 10
83.399000
 20
26.528200
 40
0.000000
 41
0.000000
 42
0.000000
  0
VERTEX
  8
BG_SILKSCREEN_TOP
 10
83.389200
 20
26.587600
 40
0.000000
 41
0.000000
 42
0.000000
  0
VERTEX
  8
BG_SILKSCREEN_TOP
 10
83.370000
 20
26.706800
 40
0.000000
 41
0.000000
 42
0.000000
  0
VERTEX
  8
BG_SILKSCREEN_TOP
 10
83.360400
 20
26.766200
 40
0.000000
 41
0.000000
 42
0.000000
  0
VERTEX
  8
BG_SILKSCREEN_TOP
 10
83.341200
 20
26.885400
 40
0.000000
 41
0.000000
 42
0.000000
  0
VERTEX
  8
BG_SILKSCREEN_TOP
 10
83.331600
 20
26.944800
 40
0.000000
 41
0.000000
 42
0.000000
  0
VERTEX
  8
BG_SILKSCREEN_TOP
 10
83.302800
 20
27.123600
 40
0.000000
 41
0.000000
 42
0.000000
  0
VERTEX
  8
BG_SILKSCREEN_TOP
 10
83.293200
 20
27.183000
 40
0.000000
 41
0.000000
 42
0.000000
  0
VERTEX
  8
BG_SILKSCREEN_TOP
 10
83.274000
 20
27.302200
 40
0.000000
 41
0.000000
 42
0.000000
  0
VERTEX
  8
BG_SILKSCREEN_TOP
 10
83.264400
 20
27.361600
 40
0.000000
 41
0.000000
 42
0.000000
  0
VERTEX
  8
BG_SILKSCREEN_TOP
 10
83.245200
 20
27.480800
 40
0.000000
 41
0.000000
 42
0.000000
  0
VERTEX
  8
BG_SILKSCREEN_TOP
 10
83.235800
 20
27.540400
 40
0.000000
 41
0.000000
 42
0.000000
  0
VERTEX
  8
BG_SILKSCREEN_TOP
 10
83.226200
 20
27.599800
 40
0.000000
 41
0.000000
 42
0.000000
  0
VERTEX
  8
BG_SILKSCREEN_TOP
 10
83.207000
 20
27.719000
 40
0.000000
 41
0.000000
 42
0.000000
  0
VERTEX
  8
BG_SILKSCREEN_TOP
 10
83.197400
 20
27.778400
 40
0.000000
 41
0.000000
 42
0.000000
  0
VERTEX
  8
BG_SILKSCREEN_TOP
 10
83.187800
 20
27.838000
 40
0.000000
 41
0.000000
 42
0.000000
  0
VERTEX
  8
BG_SILKSCREEN_TOP
 10
83.171800
 20
27.838400
 40
0.000000
 41
0.000000
 42
0.000000
  0
VERTEX
  8
BG_SILKSCREEN_TOP
 10
83.156000
 20
27.838600
 40
0.000000
 41
0.000000
 42
0.000000
  0
VERTEX
  8
BG_SILKSCREEN_TOP
 10
83.140000
 20
27.839000
 40
0.000000
 41
0.000000
 42
0.000000
  0
VERTEX
  8
BG_SILKSCREEN_TOP
 10
83.124200
 20
27.839200
 40
0.000000
 41
0.000000
 42
0.000000
  0
VERTEX
  8
BG_SILKSCREEN_TOP
 10
83.108200
 20
27.839600
 40
0.000000
 41
0.000000
 42
0.000000
  0
VERTEX
  8
BG_SILKSCREEN_TOP
 10
83.092400
 20
27.839800
 40
0.000000
 41
0.000000
 42
0.000000
  0
VERTEX
  8
BG_SILKSCREEN_TOP
 10
83.076400
 20
27.840200
 40
0.000000
 41
0.000000
 42
0.000000
  0
VERTEX
  8
BG_SILKSCREEN_TOP
 10
83.060600
 20
27.840600
 40
0.000000
 41
0.000000
 42
0.000000
  0
VERTEX
  8
BG_SILKSCREEN_TOP
 10
83.044600
 20
27.840800
 40
0.000000
 41
0.000000
 42
0.000000
  0
VERTEX
  8
BG_SILKSCREEN_TOP
 10
83.028800
 20
27.841200
 40
0.000000
 41
0.000000
 42
0.000000
  0
VERTEX
  8
BG_SILKSCREEN_TOP
 10
83.012800
 20
27.841400
 40
0.000000
 41
0.000000
 42
0.000000
  0
VERTEX
  8
BG_SILKSCREEN_TOP
 10
82.997000
 20
27.841800
 40
0.000000
 41
0.000000
 42
0.000000
  0
VERTEX
  8
BG_SILKSCREEN_TOP
 10
82.981000
 20
27.842000
 40
0.000000
 41
0.000000
 42
0.000000
  0
VERTEX
  8
BG_SILKSCREEN_TOP
 10
82.965200
 20
27.842400
 40
0.000000
 41
0.000000
 42
0.000000
  0
VERTEX
  8
BG_SILKSCREEN_TOP
 10
82.949200
 20
27.842600
 40
0.000000
 41
0.000000
 42
0.000000
  0
VERTEX
  8
BG_SILKSCREEN_TOP
 10
82.933200
 20
27.843000
 40
0.000000
 41
0.000000
 42
0.000000
  0
VERTEX
  8
BG_SILKSCREEN_TOP
 10
82.917400
 20
27.843200
 40
0.000000
 41
0.000000
 42
0.000000
  0
VERTEX
  8
BG_SILKSCREEN_TOP
 10
82.901400
 20
27.843600
 40
0.000000
 41
0.000000
 42
0.000000
  0
VERTEX
  8
BG_SILKSCREEN_TOP
 10
82.885600
 20
27.844000
 40
0.000000
 41
0.000000
 42
0.000000
  0
VERTEX
  8
BG_SILKSCREEN_TOP
 10
82.869600
 20
27.844200
 40
0.000000
 41
0.000000
 42
0.000000
  0
VERTEX
  8
BG_SILKSCREEN_TOP
 10
82.853800
 20
27.844600
 40
0.000000
 41
0.000000
 42
0.000000
  0
VERTEX
  8
BG_SILKSCREEN_TOP
 10
82.837800
 20
27.844800
 40
0.000000
 41
0.000000
 42
0.000000
  0
VERTEX
  8
BG_SILKSCREEN_TOP
 10
82.822000
 20
27.845200
 40
0.000000
 41
0.000000
 42
0.000000
  0
VERTEX
  8
BG_SILKSCREEN_TOP
 10
82.806000
 20
27.845400
 40
0.000000
 41
0.000000
 42
0.000000
  0
VERTEX
  8
BG_SILKSCREEN_TOP
 10
82.790200
 20
27.845800
 40
0.000000
 41
0.000000
 42
0.000000
  0
VERTEX
  8
BG_SILKSCREEN_TOP
 10
82.774200
 20
27.846200
 40
0.000000
 41
0.000000
 42
0.000000
  0
VERTEX
  8
BG_SILKSCREEN_TOP
 10
82.758400
 20
27.846400
 40
0.000000
 41
0.000000
 42
0.000000
  0
VERTEX
  8
BG_SILKSCREEN_TOP
 10
82.742400
 20
27.846800
 40
0.000000
 41
0.000000
 42
0.000000
  0
VERTEX
  8
BG_SILKSCREEN_TOP
 10
82.726600
 20
27.847000
 40
0.000000
 41
0.000000
 42
0.000000
  0
VERTEX
  8
BG_SILKSCREEN_TOP
 10
82.710600
 20
27.847400
 40
0.000000
 41
0.000000
 42
0.000000
  0
VERTEX
  8
BG_SILKSCREEN_TOP
 10
82.694800
 20
27.847600
 40
0.000000
 41
0.000000
 42
0.000000
  0
VERTEX
  8
BG_SILKSCREEN_TOP
 10
82.678800
 20
27.848000
 40
0.000000
 41
0.000000
 42
0.000000
  0
VERTEX
  8
BG_SILKSCREEN_TOP
 10
82.663000
 20
27.848400
 40
0.000000
 41
0.000000
 42
0.000000
  0
VERTEX
  8
BG_SILKSCREEN_TOP
 10
82.647000
 20
27.848600
 40
0.000000
 41
0.000000
 42
0.000000
  0
VERTEX
  8
BG_SILKSCREEN_TOP
 10
82.631000
 20
27.849000
 40
0.000000
 41
0.000000
 42
0.000000
  0
VERTEX
  8
BG_SILKSCREEN_TOP
 10
82.615200
 20
27.849200
 40
0.000000
 41
0.000000
 42
0.000000
  0
VERTEX
  8
BG_SILKSCREEN_TOP
 10
82.599200
 20
27.849600
 40
0.000000
 41
0.000000
 42
0.000000
  0
VERTEX
  8
BG_SILKSCREEN_TOP
 10
82.583400
 20
27.849800
 40
0.000000
 41
0.000000
 42
0.000000
  0
VERTEX
  8
BG_SILKSCREEN_TOP
 10
82.567400
 20
27.850200
 40
0.000000
 41
0.000000
 42
0.000000
  0
VERTEX
  8
BG_SILKSCREEN_TOP
 10
82.551600
 20
27.850600
 40
0.000000
 41
0.000000
 42
0.000000
  0
VERTEX
  8
BG_SILKSCREEN_TOP
 10
82.535600
 20
27.850800
 40
0.000000
 41
0.000000
 42
0.000000
  0
VERTEX
  8
BG_SILKSCREEN_TOP
 10
82.519800
 20
27.851200
 40
0.000000
 41
0.000000
 42
0.000000
  0
VERTEX
  8
BG_SILKSCREEN_TOP
 10
82.503800
 20
27.851400
 40
0.000000
 41
0.000000
 42
0.000000
  0
VERTEX
  8
BG_SILKSCREEN_TOP
 10
82.488000
 20
27.851800
 40
0.000000
 41
0.000000
 42
0.000000
  0
VERTEX
  8
BG_SILKSCREEN_TOP
 10
82.472000
 20
27.852000
 40
0.000000
 41
0.000000
 42
0.000000
  0
VERTEX
  8
BG_SILKSCREEN_TOP
 10
82.456200
 20
27.852400
 40
0.000000
 41
0.000000
 42
0.000000
  0
VERTEX
  8
BG_SILKSCREEN_TOP
 10
82.440200
 20
27.852800
 40
0.000000
 41
0.000000
 42
0.000000
  0
VERTEX
  8
BG_SILKSCREEN_TOP
 10
82.424400
 20
27.853000
 40
0.000000
 41
0.000000
 42
0.000000
  0
VERTEX
  8
BG_SILKSCREEN_TOP
 10
82.408400
 20
27.853400
 40
0.000000
 41
0.000000
 42
0.000000
  0
VERTEX
  8
BG_SILKSCREEN_TOP
 10
82.392600
 20
27.853600
 40
0.000000
 41
0.000000
 42
0.000000
  0
SEQEND
  0
POLYLINE
  8
BG_SILKSCREEN_TOP
 66
1
 70
1
 40
0.000000
 41
0.000000
 39
0.000000
  0
VERTEX
  8
BG_SILKSCREEN_TOP
 10
85.549600
 20
27.878200
 40
0.000000
 41
0.000000
 42
0.000000
  0
VERTEX
  8
BG_SILKSCREEN_TOP
 10
85.483200
 20
27.862200
 40
0.000000
 41
0.000000
 42
0.000000
  0
VERTEX
  8
BG_SILKSCREEN_TOP
 10
85.418400
 20
27.841200
 40
0.000000
 41
0.000000
 42
0.000000
  0
VERTEX
  8
BG_SILKSCREEN_TOP
 10
85.355400
 20
27.815200
 40
0.000000
 41
0.000000
 42
0.000000
  0
VERTEX
  8
BG_SILKSCREEN_TOP
 10
85.296400
 20
27.782600
 40
0.000000
 41
0.000000
 42
0.000000
  0
VERTEX
  8
BG_SILKSCREEN_TOP
 10
85.243200
 20
27.741000
 40
0.000000
 41
0.000000
 42
0.000000
  0
VERTEX
  8
BG_SILKSCREEN_TOP
 10
85.197400
 20
27.692000
 40
0.000000
 41
0.000000
 42
0.000000
  0
VERTEX
  8
BG_SILKSCREEN_TOP
 10
85.160400
 20
27.637000
 40
0.000000
 41
0.000000
 42
0.000000
  0
VERTEX
  8
BG_SILKSCREEN_TOP
 10
85.132200
 20
27.576600
 40
0.000000
 41
0.000000
 42
0.000000
  0
VERTEX
  8
BG_SILKSCREEN_TOP
 10
85.113600
 20
27.513400
 40
0.000000
 41
0.000000
 42
0.000000
  0
VERTEX
  8
BG_SILKSCREEN_TOP
 10
85.101000
 20
27.449000
 40
0.000000
 41
0.000000
 42
0.000000
  0
VERTEX
  8
BG_SILKSCREEN_TOP
 10
85.093600
 20
27.383600
 40
0.000000
 41
0.000000
 42
0.000000
  0
VERTEX
  8
BG_SILKSCREEN_TOP
 10
85.091600
 20
27.318000
 40
0.000000
 41
0.000000
 42
0.000000
  0
VERTEX
  8
BG_SILKSCREEN_TOP
 10
85.095000
 20
27.252800
 40
0.000000
 41
0.000000
 42
0.000000
  0
VERTEX
  8
BG_SILKSCREEN_TOP
 10
85.104200
 20
27.188200
 40
0.000000
 41
0.000000
 42
0.000000
  0
VERTEX
  8
BG_SILKSCREEN_TOP
 10
85.119200
 20
27.125000
 40
0.000000
 41
0.000000
 42
0.000000
  0
VERTEX
  8
BG_SILKSCREEN_TOP
 10
85.143400
 20
27.065000
 40
0.000000
 41
0.000000
 42
0.000000
  0
VERTEX
  8
BG_SILKSCREEN_TOP
 10
85.178200
 20
27.010600
 40
0.000000
 41
0.000000
 42
0.000000
  0
VERTEX
  8
BG_SILKSCREEN_TOP
 10
85.220400
 20
26.962600
 40
0.000000
 41
0.000000
 42
0.000000
  0
VERTEX
  8
BG_SILKSCREEN_TOP
 10
85.267200
 20
26.919000
 40
0.000000
 41
0.000000
 42
0.000000
  0
VERTEX
  8
BG_SILKSCREEN_TOP
 10
85.317800
 20
26.880200
 40
0.000000
 41
0.000000
 42
0.000000
  0
VERTEX
  8
BG_SILKSCREEN_TOP
 10
85.371000
 20
26.845200
 40
0.000000
 41
0.000000
 42
0.000000
  0
VERTEX
  8
BG_SILKSCREEN_TOP
 10
85.424600
 20
26.811200
 40
0.000000
 41
0.000000
 42
0.000000
  0
VERTEX
  8
BG_SILKSCREEN_TOP
 10
85.478800
 20
26.777800
 40
0.000000
 41
0.000000
 42
0.000000
  0
VERTEX
  8
BG_SILKSCREEN_TOP
 10
85.533400
 20
26.745000
 40
0.000000
 41
0.000000
 42
0.000000
  0
VERTEX
  8
BG_SILKSCREEN_TOP
 10
85.588200
 20
26.712800
 40
0.000000
 41
0.000000
 42
0.000000
  0
VERTEX
  8
BG_SILKSCREEN_TOP
 10
85.643600
 20
26.681400
 40
0.000000
 41
0.000000
 42
0.000000
  0
VERTEX
  8
BG_SILKSCREEN_TOP
 10
85.698400
 20
26.649200
 40
0.000000
 41
0.000000
 42
0.000000
  0
VERTEX
  8
BG_SILKSCREEN_TOP
 10
85.752800
 20
26.616000
 40
0.000000
 41
0.000000
 42
0.000000
  0
VERTEX
  8
BG_SILKSCREEN_TOP
 10
85.806600
 20
26.582200
 40
0.000000
 41
0.000000
 42
0.000000
  0
VERTEX
  8
BG_SILKSCREEN_TOP
 10
85.858400
 20
26.545600
 40
0.000000
 41
0.000000
 42
0.000000
  0
VERTEX
  8
BG_SILKSCREEN_TOP
 10
85.906200
 20
26.504000
 40
0.000000
 41
0.000000
 42
0.000000
  0
VERTEX
  8
BG_SILKSCREEN_TOP
 10
85.947800
 20
26.456600
 40
0.000000
 41
0.000000
 42
0.000000
  0
VERTEX
  8
BG_SILKSCREEN_TOP
 10
85.977200
 20
26.401400
 40
0.000000
 41
0.000000
 42
0.000000
  0
VERTEX
  8
BG_SILKSCREEN_TOP
 10
85.991800
 20
26.341000
 40
0.000000
 41
0.000000
 42
0.000000
  0
VERTEX
  8
BG_SILKSCREEN_TOP
 10
85.989600
 20
26.279600
 40
0.000000
 41
0.000000
 42
0.000000
  0
VERTEX
  8
BG_SILKSCREEN_TOP
 10
85.970400
 20
26.221800
 40
0.000000
 41
0.000000
 42
0.000000
  0
VERTEX
  8
BG_SILKSCREEN_TOP
 10
85.932000
 20
26.175800
 40
0.000000
 41
0.000000
 42
0.000000
  0
VERTEX
  8
BG_SILKSCREEN_TOP
 10
85.880000
 20
26.147400
 40
0.000000
 41
0.000000
 42
0.000000
  0
VERTEX
  8
BG_SILKSCREEN_TOP
 10
85.822600
 20
26.135600
 40
0.000000
 41
0.000000
 42
0.000000
  0
VERTEX
  8
BG_SILKSCREEN_TOP
 10
85.764000
 20
26.135400
 40
0.000000
 41
0.000000
 42
0.000000
  0
VERTEX
  8
BG_SILKSCREEN_TOP
 10
85.706200
 20
26.143000
 40
0.000000
 41
0.000000
 42
0.000000
  0
VERTEX
  8
BG_SILKSCREEN_TOP
 10
85.654800
 20
26.167400
 40
0.000000
 41
0.000000
 42
0.000000
  0
VERTEX
  8
BG_SILKSCREEN_TOP
 10
85.623000
 20
26.213000
 40
0.000000
 41
0.000000
 42
0.000000
  0
VERTEX
  8
BG_SILKSCREEN_TOP
 10
85.609600
 20
26.266600
 40
0.000000
 41
0.000000
 42
0.000000
  0
VERTEX
  8
BG_SILKSCREEN_TOP
 10
85.601000
 20
26.321200
 40
0.000000
 41
0.000000
 42
0.000000
  0
VERTEX
  8
BG_SILKSCREEN_TOP
 10
85.595400
 20
26.376200
 40
0.000000
 41
0.000000
 42
0.000000
  0
VERTEX
  8
BG_SILKSCREEN_TOP
 10
85.590000
 20
26.431000
 40
0.000000
 41
0.000000
 42
0.000000
  0
VERTEX
  8
BG_SILKSCREEN_TOP
 10
85.584400
 20
26.486000
 40
0.000000
 41
0.000000
 42
0.000000
  0
VERTEX
  8
BG_SILKSCREEN_TOP
 10
85.574000
 20
26.486200
 40
0.000000
 41
0.000000
 42
0.000000
  0
VERTEX
  8
BG_SILKSCREEN_TOP
 10
85.553200
 20
26.487000
 40
0.000000
 41
0.000000
 42
0.000000
  0
VERTEX
  8
BG_SILKSCREEN_TOP
 10
85.542800
 20
26.487200
 40
0.000000
 41
0.000000
 42
0.000000
  0
VERTEX
  8
BG_SILKSCREEN_TOP
 10
85.532400
 20
26.487600
 40
0.000000
 41
0.000000
 42
0.000000
  0
VERTEX
  8
BG_SILKSCREEN_TOP
 10
85.522000
 20
26.487800
 40
0.000000
 41
0.000000
 42
0.000000
  0
VERTEX
  8
BG_SILKSCREEN_TOP
 10
85.511400
 20
26.488200
 40
0.000000
 41
0.000000
 42
0.000000
  0
VERTEX
  8
BG_SILKSCREEN_TOP
 10
85.501000
 20
26.488600
 40
0.000000
 41
0.000000
 42
0.000000
  0
VERTEX
  8
BG_SILKSCREEN_TOP
 10
85.490600
 20
26.488800
 40
0.000000
 41
0.000000
 42
0.000000
  0
VERTEX
  8
BG_SILKSCREEN_TOP
 10
85.480200
 20
26.489200
 40
0.000000
 41
0.000000
 42
0.000000
  0
VERTEX
  8
BG_SILKSCREEN_TOP
 10
85.469800
 20
26.489400
 40
0.000000
 41
0.000000
 42
0.000000
  0
VERTEX
  8
BG_SILKSCREEN_TOP
 10
85.449000
 20
26.490200
 40
0.000000
 41
0.000000
 42
0.000000
  0
VERTEX
  8
BG_SILKSCREEN_TOP
 10
85.438600
 20
26.490400
 40
0.000000
 41
0.000000
 42
0.000000
  0
VERTEX
  8
BG_SILKSCREEN_TOP
 10
85.428200
 20
26.490800
 40
0.000000
 41
0.000000
 42
0.000000
  0
VERTEX
  8
BG_SILKSCREEN_TOP
 10
85.417600
 20
26.491200
 40
0.000000
 41
0.000000
 42
0.000000
  0
VERTEX
  8
BG_SILKSCREEN_TOP
 10
85.407200
 20
26.491400
 40
0.000000
 41
0.000000
 42
0.000000
  0
VERTEX
  8
BG_SILKSCREEN_TOP
 10
85.396800
 20
26.491800
 40
0.000000
 41
0.000000
 42
0.000000
  0
VERTEX
  8
BG_SILKSCREEN_TOP
 10
85.386400
 20
26.492000
 40
0.000000
 41
0.000000
 42
0.000000
  0
VERTEX
  8
BG_SILKSCREEN_TOP
 10
85.365600
 20
26.492800
 40
0.000000
 41
0.000000
 42
0.000000
  0
VERTEX
  8
BG_SILKSCREEN_TOP
 10
85.355200
 20
26.493000
 40
0.000000
 41
0.000000
 42
0.000000
  0
VERTEX
  8
BG_SILKSCREEN_TOP
 10
85.334400
 20
26.493800
 40
0.000000
 41
0.000000
 42
0.000000
  0
VERTEX
  8
BG_SILKSCREEN_TOP
 10
85.323800
 20
26.494000
 40
0.000000
 41
0.000000
 42
0.000000
  0
VERTEX
  8
BG_SILKSCREEN_TOP
 10
85.313400
 20
26.494400
 40
0.000000
 41
0.000000
 42
0.000000
  0
VERTEX
  8
BG_SILKSCREEN_TOP
 10
85.303000
 20
26.494600
 40
0.000000
 41
0.000000
 42
0.000000
  0
VERTEX
  8
BG_SILKSCREEN_TOP
 10
85.282200
 20
26.495400
 40
0.000000
 41
0.000000
 42
0.000000
  0
VERTEX
  8
BG_SILKSCREEN_TOP
 10
85.271800
 20
26.495600
 40
0.000000
 41
0.000000
 42
0.000000
  0
VERTEX
  8
BG_SILKSCREEN_TOP
 10
85.261400
 20
26.496000
 40
0.000000
 41
0.000000
 42
0.000000
  0
VERTEX
  8
BG_SILKSCREEN_TOP
 10
85.251000
 20
26.496200
 40
0.000000
 41
0.000000
 42
0.000000
  0
VERTEX
  8
BG_SILKSCREEN_TOP
 10
85.240600
 20
26.496600
 40
0.000000
 41
0.000000
 42
0.000000
  0
VERTEX
  8
BG_SILKSCREEN_TOP
 10
85.230000
 20
26.497000
 40
0.000000
 41
0.000000
 42
0.000000
  0
VERTEX
  8
BG_SILKSCREEN_TOP
 10
85.219600
 20
26.497200
 40
0.000000
 41
0.000000
 42
0.000000
  0
VERTEX
  8
BG_SILKSCREEN_TOP
 10
85.198800
 20
26.498000
 40
0.000000
 41
0.000000
 42
0.000000
  0
VERTEX
  8
BG_SILKSCREEN_TOP
 10
85.188400
 20
26.498200
 40
0.000000
 41
0.000000
 42
0.000000
  0
VERTEX
  8
BG_SILKSCREEN_TOP
 10
85.178000
 20
26.498600
 40
0.000000
 41
0.000000
 42
0.000000
  0
VERTEX
  8
BG_SILKSCREEN_TOP
 10
85.167600
 20
26.498800
 40
0.000000
 41
0.000000
 42
0.000000
  0
VERTEX
  8
BG_SILKSCREEN_TOP
 10
85.157200
 20
26.499200
 40
0.000000
 41
0.000000
 42
0.000000
  0
VERTEX
  8
BG_SILKSCREEN_TOP
 10
85.146600
 20
26.499600
 40
0.000000
 41
0.000000
 42
0.000000
  0
VERTEX
  8
BG_SILKSCREEN_TOP
 10
85.136200
 20
26.499800
 40
0.000000
 41
0.000000
 42
0.000000
  0
VERTEX
  8
BG_SILKSCREEN_TOP
 10
85.115400
 20
26.500600
 40
0.000000
 41
0.000000
 42
0.000000
  0
VERTEX
  8
BG_SILKSCREEN_TOP
 10
85.105000
 20
26.500800
 40
0.000000
 41
0.000000
 42
0.000000
  0
VERTEX
  8
BG_SILKSCREEN_TOP
 10
85.094600
 20
26.501200
 40
0.000000
 41
0.000000
 42
0.000000
  0
VERTEX
  8
BG_SILKSCREEN_TOP
 10
85.084200
 20
26.501400
 40
0.000000
 41
0.000000
 42
0.000000
  0
VERTEX
  8
BG_SILKSCREEN_TOP
 10
85.063400
 20
26.502200
 40
0.000000
 41
0.000000
 42
0.000000
  0
VERTEX
  8
BG_SILKSCREEN_TOP
 10
85.063800
 20
26.405000
 40
0.000000
 41
0.000000
 42
0.000000
  0
VERTEX
  8
BG_SILKSCREEN_TOP
 10
85.065600
 20
26.308200
 40
0.000000
 41
0.000000
 42
0.000000
  0
VERTEX
  8
BG_SILKSCREEN_TOP
 10
85.078600
 20
26.212200
 40
0.000000
 41
0.000000
 42
0.000000
  0
VERTEX
  8
BG_SILKSCREEN_TOP
 10
85.106000
 20
26.119800
 40
0.000000
 41
0.000000
 42
0.000000
  0
VERTEX
  8
BG_SILKSCREEN_TOP
 10
85.148800
 20
26.034000
 40
0.000000
 41
0.000000
 42
0.000000
  0
VERTEX
  8
BG_SILKSCREEN_TOP
 10
85.207000
 20
25.958000
 40
0.000000
 41
0.000000
 42
0.000000
  0
VERTEX
  8
BG_SILKSCREEN_TOP
 10
85.280000
 20
25.897000
 40
0.000000
 41
0.000000
 42
0.000000
  0
VERTEX
  8
BG_SILKSCREEN_TOP
 10
85.362000
 20
25.850600
 40
0.000000
 41
0.000000
 42
0.000000
  0
VERTEX
  8
BG_SILKSCREEN_TOP
 10
85.449800
 20
25.815400
 40
0.000000
 41
0.000000
 42
0.000000
  0
VERTEX
  8
BG_SILKSCREEN_TOP
 10
85.541200
 20
25.792400
 40
0.000000
 41
0.000000
 42
0.000000
  0
VERTEX
  8
BG_SILKSCREEN_TOP
 10
85.633600
 20
25.779400
 40
0.000000
 41
0.000000
 42
0.000000
  0
VERTEX
  8
BG_SILKSCREEN_TOP
 10
85.727000
 20
25.773200
 40
0.000000
 41
0.000000
 42
0.000000
  0
VERTEX
  8
BG_SILKSCREEN_TOP
 10
85.820400
 20
25.773600
 40
0.000000
 41
0.000000
 42
0.000000
  0
VERTEX
  8
BG_SILKSCREEN_TOP
 10
85.913200
 20
25.780600
 40
0.000000
 41
0.000000
 42
0.000000
  0
VERTEX
  8
BG_SILKSCREEN_TOP
 10
86.005000
 20
25.794800
 40
0.000000
 41
0.000000
 42
0.000000
  0
VERTEX
  8
BG_SILKSCREEN_TOP
 10
86.095600
 20
25.816000
 40
0.000000
 41
0.000000
 42
0.000000
  0
VERTEX
  8
BG_SILKSCREEN_TOP
 10
86.184000
 20
25.844200
 40
0.000000
 41
0.000000
 42
0.000000
  0
VERTEX
  8
BG_SILKSCREEN_TOP
 10
86.266600
 20
25.882600
 40
0.000000
 41
0.000000
 42
0.000000
  0
VERTEX
  8
BG_SILKSCREEN_TOP
 10
86.339200
 20
25.938400
 40
0.000000
 41
0.000000
 42
0.000000
  0
VERTEX
  8
BG_SILKSCREEN_TOP
 10
86.397400
 20
26.007800
 40
0.000000
 41
0.000000
 42
0.000000
  0
VERTEX
  8
BG_SILKSCREEN_TOP
 10
86.434200
 20
26.089400
 40
0.000000
 41
0.000000
 42
0.000000
  0
VERTEX
  8
BG_SILKSCREEN_TOP
 10
86.461000
 20
26.174800
 40
0.000000
 41
0.000000
 42
0.000000
  0
VERTEX
  8
BG_SILKSCREEN_TOP
 10
86.479400
 20
26.262200
 40
0.000000
 41
0.000000
 42
0.000000
  0
VERTEX
  8
BG_SILKSCREEN_TOP
 10
86.488400
 20
26.350800
 40
0.000000
 41
0.000000
 42
0.000000
  0
VERTEX
  8
BG_SILKSCREEN_TOP
 10
86.488000
 20
26.440000
 40
0.000000
 41
0.000000
 42
0.000000
  0
VERTEX
  8
BG_SILKSCREEN_TOP
 10
86.477400
 20
26.527800
 40
0.000000
 41
0.000000
 42
0.000000
  0
VERTEX
  8
BG_SILKSCREEN_TOP
 10
86.451400
 20
26.612000
 40
0.000000
 41
0.000000
 42
0.000000
  0
VERTEX
  8
BG_SILKSCREEN_TOP
 10
86.409800
 20
26.689200
 40
0.000000
 41
0.000000
 42
0.000000
  0
VERTEX
  8
BG_SILKSCREEN_TOP
 10
86.356800
 20
26.757800
 40
0.000000
 41
0.000000
 42
0.000000
  0
VERTEX
  8
BG_SILKSCREEN_TOP
 10
86.295200
 20
26.819000
 40
0.000000
 41
0.000000
 42
0.000000
  0
VERTEX
  8
BG_SILKSCREEN_TOP
 10
86.226800
 20
26.871800
 40
0.000000
 41
0.000000
 42
0.000000
  0
VERTEX
  8
BG_SILKSCREEN_TOP
 10
86.155400
 20
26.920200
 40
0.000000
 41
0.000000
 42
0.000000
  0
VERTEX
  8
BG_SILKSCREEN_TOP
 10
86.082400
 20
26.966200
 40
0.000000
 41
0.000000
 42
0.000000
  0
VERTEX
  8
BG_SILKSCREEN_TOP
 10
86.008200
 20
27.010000
 40
0.000000
 41
0.000000
 42
0.000000
  0
VERTEX
  8
BG_SILKSCREEN_TOP
 10
85.932800
 20
27.051600
 40
0.000000
 41
0.000000
 42
0.000000
  0
VERTEX
  8
BG_SILKSCREEN_TOP
 10
85.857400
 20
27.093400
 40
0.000000
 41
0.000000
 42
0.000000
  0
VERTEX
  8
BG_SILKSCREEN_TOP
 10
85.783200
 20
27.137200
 40
0.000000
 41
0.000000
 42
0.000000
  0
VERTEX
  8
BG_SILKSCREEN_TOP
 10
85.711400
 20
27.184400
 40
0.000000
 41
0.000000
 42
0.000000
  0
VERTEX
  8
BG_SILKSCREEN_TOP
 10
85.645600
 20
27.239400
 40
0.000000
 41
0.000000
 42
0.000000
  0
VERTEX
  8
BG_SILKSCREEN_TOP
 10
85.592600
 20
27.306400
 40
0.000000
 41
0.000000
 42
0.000000
  0
VERTEX
  8
BG_SILKSCREEN_TOP
 10
85.570400
 20
27.386600
 40
0.000000
 41
0.000000
 42
0.000000
  0
VERTEX
  8
BG_SILKSCREEN_TOP
 10
85.594600
 20
27.463800
 40
0.000000
 41
0.000000
 42
0.000000
  0
VERTEX
  8
BG_SILKSCREEN_TOP
 10
85.647600
 20
27.524800
 40
0.000000
 41
0.000000
 42
0.000000
  0
VERTEX
  8
BG_SILKSCREEN_TOP
 10
85.716800
 20
27.564800
 40
0.000000
 41
0.000000
 42
0.000000
  0
VERTEX
  8
BG_SILKSCREEN_TOP
 10
85.794600
 20
27.565400
 40
0.000000
 41
0.000000
 42
0.000000
  0
VERTEX
  8
BG_SILKSCREEN_TOP
 10
85.862600
 20
27.529400
 40
0.000000
 41
0.000000
 42
0.000000
  0
VERTEX
  8
BG_SILKSCREEN_TOP
 10
85.916400
 20
27.475200
 40
0.000000
 41
0.000000
 42
0.000000
  0
VERTEX
  8
BG_SILKSCREEN_TOP
 10
85.953600
 20
27.409200
 40
0.000000
 41
0.000000
 42
0.000000
  0
VERTEX
  8
BG_SILKSCREEN_TOP
 10
85.964800
 20
27.335200
 40
0.000000
 41
0.000000
 42
0.000000
  0
VERTEX
  8
BG_SILKSCREEN_TOP
 10
85.964800
 20
27.260600
 40
0.000000
 41
0.000000
 42
0.000000
  0
VERTEX
  8
BG_SILKSCREEN_TOP
 10
86.443600
 20
27.260600
 40
0.000000
 41
0.000000
 42
0.000000
  0
VERTEX
  8
BG_SILKSCREEN_TOP
 10
86.443600
 20
27.380800
 40
0.000000
 41
0.000000
 42
0.000000
  0
VERTEX
  8
BG_SILKSCREEN_TOP
 10
86.443400
 20
27.404800
 40
0.000000
 41
0.000000
 42
0.000000
  0
VERTEX
  8
BG_SILKSCREEN_TOP
 10
86.442200
 20
27.428600
 40
0.000000
 41
0.000000
 42
0.000000
  0
VERTEX
  8
BG_SILKSCREEN_TOP
 10
86.440200
 20
27.452600
 40
0.000000
 41
0.000000
 42
0.000000
  0
VERTEX
  8
BG_SILKSCREEN_TOP
 10
86.437400
 20
27.476400
 40
0.000000
 41
0.000000
 42
0.000000
  0
VERTEX
  8
BG_SILKSCREEN_TOP
 10
86.433600
 20
27.500200
 40
0.000000
 41
0.000000
 42
0.000000
  0
VERTEX
  8
BG_SILKSCREEN_TOP
 10
86.428800
 20
27.523600
 40
0.000000
 41
0.000000
 42
0.000000
  0
VERTEX
  8
BG_SILKSCREEN_TOP
 10
86.423400
 20
27.547000
 40
0.000000
 41
0.000000
 42
0.000000
  0
VERTEX
  8
BG_SILKSCREEN_TOP
 10
86.416800
 20
27.569800
 40
0.000000
 41
0.000000
 42
0.000000
  0
VERTEX
  8
BG_SILKSCREEN_TOP
 10
86.409000
 20
27.592200
 40
0.000000
 41
0.000000
 42
0.000000
  0
VERTEX
  8
BG_SILKSCREEN_TOP
 10
86.400000
 20
27.614200
 40
0.000000
 41
0.000000
 42
0.000000
  0
VERTEX
  8
BG_SILKSCREEN_TOP
 10
86.389600
 20
27.635800
 40
0.000000
 41
0.000000
 42
0.000000
  0
VERTEX
  8
BG_SILKSCREEN_TOP
 10
86.378200
 20
27.656600
 40
0.000000
 41
0.000000
 42
0.000000
  0
VERTEX
  8
BG_SILKSCREEN_TOP
 10
86.365400
 20
27.676600
 40
0.000000
 41
0.000000
 42
0.000000
  0
VERTEX
  8
BG_SILKSCREEN_TOP
 10
86.351800
 20
27.695800
 40
0.000000
 41
0.000000
 42
0.000000
  0
VERTEX
  8
BG_SILKSCREEN_TOP
 10
86.337000
 20
27.714000
 40
0.000000
 41
0.000000
 42
0.000000
  0
VERTEX
  8
BG_SILKSCREEN_TOP
 10
86.321000
 20
27.731400
 40
0.000000
 41
0.000000
 42
0.000000
  0
VERTEX
  8
BG_SILKSCREEN_TOP
 10
86.304200
 20
27.747800
 40
0.000000
 41
0.000000
 42
0.000000
  0
VERTEX
  8
BG_SILKSCREEN_TOP
 10
86.286200
 20
27.763000
 40
0.000000
 41
0.000000
 42
0.000000
  0
VERTEX
  8
BG_SILKSCREEN_TOP
 10
86.267600
 20
27.777200
 40
0.000000
 41
0.000000
 42
0.000000
  0
VERTEX
  8
BG_SILKSCREEN_TOP
 10
86.248200
 20
27.790200
 40
0.000000
 41
0.000000
 42
0.000000
  0
VERTEX
  8
BG_SILKSCREEN_TOP
 10
86.228200
 20
27.802200
 40
0.000000
 41
0.000000
 42
0.000000
  0
VERTEX
  8
BG_SILKSCREEN_TOP
 10
86.207600
 20
27.813200
 40
0.000000
 41
0.000000
 42
0.000000
  0
VERTEX
  8
BG_SILKSCREEN_TOP
 10
86.186600
 20
27.823400
 40
0.000000
 41
0.000000
 42
0.000000
  0
VERTEX
  8
BG_SILKSCREEN_TOP
 10
86.165200
 20
27.832400
 40
0.000000
 41
0.000000
 42
0.000000
  0
VERTEX
  8
BG_SILKSCREEN_TOP
 10
86.143400
 20
27.840600
 40
0.000000
 41
0.000000
 42
0.000000
  0
VERTEX
  8
BG_SILKSCREEN_TOP
 10
86.121200
 20
27.847600
 40
0.000000
 41
0.000000
 42
0.000000
  0
VERTEX
  8
BG_SILKSCREEN_TOP
 10
86.098800
 20
27.853800
 40
0.000000
 41
0.000000
 42
0.000000
  0
VERTEX
  8
BG_SILKSCREEN_TOP
 10
86.076400
 20
27.859200
 40
0.000000
 41
0.000000
 42
0.000000
  0
VERTEX
  8
BG_SILKSCREEN_TOP
 10
86.053800
 20
27.864400
 40
0.000000
 41
0.000000
 42
0.000000
  0
VERTEX
  8
BG_SILKSCREEN_TOP
 10
86.031000
 20
27.868800
 40
0.000000
 41
0.000000
 42
0.000000
  0
VERTEX
  8
BG_SILKSCREEN_TOP
 10
86.008200
 20
27.873000
 40
0.000000
 41
0.000000
 42
0.000000
  0
VERTEX
  8
BG_SILKSCREEN_TOP
 10
85.985400
 20
27.876600
 40
0.000000
 41
0.000000
 42
0.000000
  0
VERTEX
  8
BG_SILKSCREEN_TOP
 10
85.962400
 20
27.879800
 40
0.000000
 41
0.000000
 42
0.000000
  0
VERTEX
  8
BG_SILKSCREEN_TOP
 10
85.939400
 20
27.882600
 40
0.000000
 41
0.000000
 42
0.000000
  0
VERTEX
  8
BG_SILKSCREEN_TOP
 10
85.916400
 20
27.885200
 40
0.000000
 41
0.000000
 42
0.000000
  0
VERTEX
  8
BG_SILKSCREEN_TOP
 10
85.893400
 20
27.887400
 40
0.000000
 41
0.000000
 42
0.000000
  0
VERTEX
  8
BG_SILKSCREEN_TOP
 10
85.870400
 20
27.889400
 40
0.000000
 41
0.000000
 42
0.000000
  0
VERTEX
  8
BG_SILKSCREEN_TOP
 10
85.847200
 20
27.891000
 40
0.000000
 41
0.000000
 42
0.000000
  0
VERTEX
  8
BG_SILKSCREEN_TOP
 10
85.824200
 20
27.892200
 40
0.000000
 41
0.000000
 42
0.000000
  0
VERTEX
  8
BG_SILKSCREEN_TOP
 10
85.801000
 20
27.893200
 40
0.000000
 41
0.000000
 42
0.000000
  0
VERTEX
  8
BG_SILKSCREEN_TOP
 10
85.777800
 20
27.894000
 40
0.000000
 41
0.000000
 42
0.000000
  0
VERTEX
  8
BG_SILKSCREEN_TOP
 10
85.754800
 20
27.894400
 40
0.000000
 41
0.000000
 42
0.000000
  0
VERTEX
  8
BG_SILKSCREEN_TOP
 10
85.731600
 20
27.894400
 40
0.000000
 41
0.000000
 42
0.000000
  0
VERTEX
  8
BG_SILKSCREEN_TOP
 10
85.708400
 20
27.894200
 40
0.000000
 41
0.000000
 42
0.000000
  0
VERTEX
  8
BG_SILKSCREEN_TOP
 10
85.685400
 20
27.893600
 40
0.000000
 41
0.000000
 42
0.000000
  0
VERTEX
  8
BG_SILKSCREEN_TOP
 10
85.617200
 20
27.888600
 40
0.000000
 41
0.000000
 42
0.000000
  0
SEQEND
  0
POLYLINE
  8
BG_SILKSCREEN_TOP
 66
1
 70
1
 40
0.000000
 41
0.000000
 39
0.000000
  0
VERTEX
  8
BG_SILKSCREEN_TOP
 10
78.882600
 20
27.857600
 40
0.000000
 41
0.000000
 42
0.000000
  0
VERTEX
  8
BG_SILKSCREEN_TOP
 10
78.820800
 20
27.831200
 40
0.000000
 41
0.000000
 42
0.000000
  0
VERTEX
  8
BG_SILKSCREEN_TOP
 10
78.761800
 20
27.800000
 40
0.000000
 41
0.000000
 42
0.000000
  0
VERTEX
  8
BG_SILKSCREEN_TOP
 10
78.707200
 20
27.762000
 40
0.000000
 41
0.000000
 42
0.000000
  0
VERTEX
  8
BG_SILKSCREEN_TOP
 10
78.658400
 20
27.716400
 40
0.000000
 41
0.000000
 42
0.000000
  0
VERTEX
  8
BG_SILKSCREEN_TOP
 10
78.617200
 20
27.665200
 40
0.000000
 41
0.000000
 42
0.000000
  0
VERTEX
  8
BG_SILKSCREEN_TOP
 10
78.583800
 20
27.608400
 40
0.000000
 41
0.000000
 42
0.000000
  0
VERTEX
  8
BG_SILKSCREEN_TOP
 10
78.559400
 20
27.547400
 40
0.000000
 41
0.000000
 42
0.000000
  0
VERTEX
  8
BG_SILKSCREEN_TOP
 10
78.543000
 20
27.484400
 40
0.000000
 41
0.000000
 42
0.000000
  0
VERTEX
  8
BG_SILKSCREEN_TOP
 10
78.532800
 20
27.420200
 40
0.000000
 41
0.000000
 42
0.000000
  0
VERTEX
  8
BG_SILKSCREEN_TOP
 10
78.528400
 20
27.355200
 40
0.000000
 41
0.000000
 42
0.000000
  0
VERTEX
  8
BG_SILKSCREEN_TOP
 10
78.530000
 20
27.290600
 40
0.000000
 41
0.000000
 42
0.000000
  0
VERTEX
  8
BG_SILKSCREEN_TOP
 10
78.538000
 20
27.226400
 40
0.000000
 41
0.000000
 42
0.000000
  0
VERTEX
  8
BG_SILKSCREEN_TOP
 10
78.552200
 20
27.163400
 40
0.000000
 41
0.000000
 42
0.000000
  0
VERTEX
  8
BG_SILKSCREEN_TOP
 10
78.573800
 20
27.103400
 40
0.000000
 41
0.000000
 42
0.000000
  0
VERTEX
  8
BG_SILKSCREEN_TOP
 10
78.604800
 20
27.047200
 40
0.000000
 41
0.000000
 42
0.000000
  0
VERTEX
  8
BG_SILKSCREEN_TOP
 10
78.643600
 20
26.996800
 40
0.000000
 41
0.000000
 42
0.000000
  0
VERTEX
  8
BG_SILKSCREEN_TOP
 10
78.687200
 20
26.950800
 40
0.000000
 41
0.000000
 42
0.000000
  0
VERTEX
  8
BG_SILKSCREEN_TOP
 10
78.735000
 20
26.909200
 40
0.000000
 41
0.000000
 42
0.000000
  0
VERTEX
  8
BG_SILKSCREEN_TOP
 10
78.786200
 20
26.872000
 40
0.000000
 41
0.000000
 42
0.000000
  0
VERTEX
  8
BG_SILKSCREEN_TOP
 10
78.838600
 20
26.836800
 40
0.000000
 41
0.000000
 42
0.000000
  0
VERTEX
  8
BG_SILKSCREEN_TOP
 10
78.891600
 20
26.802600
 40
0.000000
 41
0.000000
 42
0.000000
  0
VERTEX
  8
BG_SILKSCREEN_TOP
 10
78.945200
 20
26.769200
 40
0.000000
 41
0.000000
 42
0.000000
  0
VERTEX
  8
BG_SILKSCREEN_TOP
 10
78.999400
 20
26.737000
 40
0.000000
 41
0.000000
 42
0.000000
  0
VERTEX
  8
BG_SILKSCREEN_TOP
 10
79.054000
 20
26.705400
 40
0.000000
 41
0.000000
 42
0.000000
  0
VERTEX
  8
BG_SILKSCREEN_TOP
 10
79.108200
 20
26.673000
 40
0.000000
 41
0.000000
 42
0.000000
  0
VERTEX
  8
BG_SILKSCREEN_TOP
 10
79.161800
 20
26.639800
 40
0.000000
 41
0.000000
 42
0.000000
  0
VERTEX
  8
BG_SILKSCREEN_TOP
 10
79.215000
 20
26.605600
 40
0.000000
 41
0.000000
 42
0.000000
  0
VERTEX
  8
BG_SILKSCREEN_TOP
 10
79.267400
 20
26.570600
 40
0.000000
 41
0.000000
 42
0.000000
  0
VERTEX
  8
BG_SILKSCREEN_TOP
 10
79.318400
 20
26.534000
 40
0.000000
 41
0.000000
 42
0.000000
  0
VERTEX
  8
BG_SILKSCREEN_TOP
 10
79.365200
 20
26.492200
 40
0.000000
 41
0.000000
 42
0.000000
  0
VERTEX
  8
BG_SILKSCREEN_TOP
 10
79.406200
 20
26.444800
 40
0.000000
 41
0.000000
 42
0.000000
  0
VERTEX
  8
BG_SILKSCREEN_TOP
 10
79.439200
 20
26.393200
 40
0.000000
 41
0.000000
 42
0.000000
  0
VERTEX
  8
BG_SILKSCREEN_TOP
 10
79.453600
 20
26.334000
 40
0.000000
 41
0.000000
 42
0.000000
  0
VERTEX
  8
BG_SILKSCREEN_TOP
 10
79.446200
 20
26.275200
 40
0.000000
 41
0.000000
 42
0.000000
  0
VERTEX
  8
BG_SILKSCREEN_TOP
 10
79.423600
 20
26.221400
 40
0.000000
 41
0.000000
 42
0.000000
  0
VERTEX
  8
BG_SILKSCREEN_TOP
 10
79.388600
 20
26.174800
 40
0.000000
 41
0.000000
 42
0.000000
  0
VERTEX
  8
BG_SILKSCREEN_TOP
 10
79.345600
 20
26.136600
 40
0.000000
 41
0.000000
 42
0.000000
  0
VERTEX
  8
BG_SILKSCREEN_TOP
 10
79.294400
 20
26.113200
 40
0.000000
 41
0.000000
 42
0.000000
  0
VERTEX
  8
BG_SILKSCREEN_TOP
 10
79.238200
 20
26.114200
 40
0.000000
 41
0.000000
 42
0.000000
  0
VERTEX
  8
BG_SILKSCREEN_TOP
 10
79.183800
 20
26.127400
 40
0.000000
 41
0.000000
 42
0.000000
  0
VERTEX
  8
BG_SILKSCREEN_TOP
 10
79.133600
 20
26.151600
 40
0.000000
 41
0.000000
 42
0.000000
  0
VERTEX
  8
BG_SILKSCREEN_TOP
 10
79.092000
 20
26.187600
 40
0.000000
 41
0.000000
 42
0.000000
  0
VERTEX
  8
BG_SILKSCREEN_TOP
 10
79.062400
 20
26.233400
 40
0.000000
 41
0.000000
 42
0.000000
  0
VERTEX
  8
BG_SILKSCREEN_TOP
 10
79.045200
 20
26.285000
 40
0.000000
 41
0.000000
 42
0.000000
  0
VERTEX
  8
BG_SILKSCREEN_TOP
 10
79.037000
 20
26.338400
 40
0.000000
 41
0.000000
 42
0.000000
  0
VERTEX
  8
BG_SILKSCREEN_TOP
 10
79.035200
 20
26.392200
 40
0.000000
 41
0.000000
 42
0.000000
  0
VERTEX
  8
BG_SILKSCREEN_TOP
 10
79.035200
 20
26.500000
 40
0.000000
 41
0.000000
 42
0.000000
  0
VERTEX
  8
BG_SILKSCREEN_TOP
 10
78.500000
 20
26.500000
 40
0.000000
 41
0.000000
 42
0.000000
  0
VERTEX
  8
BG_SILKSCREEN_TOP
 10
78.500000
 20
26.403200
 40
0.000000
 41
0.000000
 42
0.000000
  0
VERTEX
  8
BG_SILKSCREEN_TOP
 10
78.503800
 20
26.306600
 40
0.000000
 41
0.000000
 42
0.000000
  0
VERTEX
  8
BG_SILKSCREEN_TOP
 10
78.519600
 20
26.211400
 40
0.000000
 41
0.000000
 42
0.000000
  0
VERTEX
  8
BG_SILKSCREEN_TOP
 10
78.548800
 20
26.119600
 40
0.000000
 41
0.000000
 42
0.000000
  0
VERTEX
  8
BG_SILKSCREEN_TOP
 10
78.592200
 20
26.034000
 40
0.000000
 41
0.000000
 42
0.000000
  0
VERTEX
  8
BG_SILKSCREEN_TOP
 10
78.650000
 20
25.957800
 40
0.000000
 41
0.000000
 42
0.000000
  0
VERTEX
  8
BG_SILKSCREEN_TOP
 10
78.721800
 20
25.895400
 40
0.000000
 41
0.000000
 42
0.000000
  0
VERTEX
  8
BG_SILKSCREEN_TOP
 10
78.804400
 20
25.848800
 40
0.000000
 41
0.000000
 42
0.000000
  0
VERTEX
  8
BG_SILKSCREEN_TOP
 10
78.891600
 20
25.812000
 40
0.000000
 41
0.000000
 42
0.000000
  0
VERTEX
  8
BG_SILKSCREEN_TOP
 10
78.981400
 20
25.783000
 40
0.000000
 41
0.000000
 42
0.000000
  0
VERTEX
  8
BG_SILKSCREEN_TOP
 10
79.073400
 20
25.761200
 40
0.000000
 41
0.000000
 42
0.000000
  0
VERTEX
  8
BG_SILKSCREEN_TOP
 10
79.166600
 20
25.747200
 40
0.000000
 41
0.000000
 42
0.000000
  0
VERTEX
  8
BG_SILKSCREEN_TOP
 10
79.260600
 20
25.745400
 40
0.000000
 41
0.000000
 42
0.000000
  0
VERTEX
  8
BG_SILKSCREEN_TOP
 10
79.353800
 20
25.756000
 40
0.000000
 41
0.000000
 42
0.000000
  0
VERTEX
  8
BG_SILKSCREEN_TOP
 10
79.446000
 20
25.772600
 40
0.000000
 41
0.000000
 42
0.000000
  0
VERTEX
  8
BG_SILKSCREEN_TOP
 10
79.537000
 20
25.795000
 40
0.000000
 41
0.000000
 42
0.000000
  0
VERTEX
  8
BG_SILKSCREEN_TOP
 10
79.625600
 20
25.823200
 40
0.000000
 41
0.000000
 42
0.000000
  0
VERTEX
  8
BG_SILKSCREEN_TOP
 10
79.708800
 20
25.864400
 40
0.000000
 41
0.000000
 42
0.000000
  0
VERTEX
  8
BG_SILKSCREEN_TOP
 10
79.783000
 20
25.919800
 40
0.000000
 41
0.000000
 42
0.000000
  0
VERTEX
  8
BG_SILKSCREEN_TOP
 10
79.844200
 20
25.986800
 40
0.000000
 41
0.000000
 42
0.000000
  0
VERTEX
  8
BG_SILKSCREEN_TOP
 10
79.890000
 20
26.065800
 40
0.000000
 41
0.000000
 42
0.000000
  0
VERTEX
  8
BG_SILKSCREEN_TOP
 10
79.918400
 20
26.151200
 40
0.000000
 41
0.000000
 42
0.000000
  0
VERTEX
  8
BG_SILKSCREEN_TOP
 10
79.936400
 20
26.239000
 40
0.000000
 41
0.000000
 42
0.000000
  0
VERTEX
  8
BG_SILKSCREEN_TOP
 10
79.945600
 20
26.328200
 40
0.000000
 41
0.000000
 42
0.000000
  0
VERTEX
  8
BG_SILKSCREEN_TOP
 10
79.945800
 20
26.417400
 40
0.000000
 41
0.000000
 42
0.000000
  0
VERTEX
  8
BG_SILKSCREEN_TOP
 10
79.937200
 20
26.506000
 40
0.000000
 41
0.000000
 42
0.000000
  0
VERTEX
  8
BG_SILKSCREEN_TOP
 10
79.920000
 20
26.593200
 40
0.000000
 41
0.000000
 42
0.000000
  0
VERTEX
  8
BG_SILKSCREEN_TOP
 10
79.887400
 20
26.675000
 40
0.000000
 41
0.000000
 42
0.000000
  0
VERTEX
  8
BG_SILKSCREEN_TOP
 10
79.837400
 20
26.747000
 40
0.000000
 41
0.000000
 42
0.000000
  0
VERTEX
  8
BG_SILKSCREEN_TOP
 10
79.776600
 20
26.809400
 40
0.000000
 41
0.000000
 42
0.000000
  0
VERTEX
  8
BG_SILKSCREEN_TOP
 10
79.708000
 20
26.863000
 40
0.000000
 41
0.000000
 42
0.000000
  0
VERTEX
  8
BG_SILKSCREEN_TOP
 10
79.635200
 20
26.909800
 40
0.000000
 41
0.000000
 42
0.000000
  0
VERTEX
  8
BG_SILKSCREEN_TOP
 10
79.561400
 20
26.955400
 40
0.000000
 41
0.000000
 42
0.000000
  0
VERTEX
  8
BG_SILKSCREEN_TOP
 10
79.486800
 20
26.999600
 40
0.000000
 41
0.000000
 42
0.000000
  0
VERTEX
  8
BG_SILKSCREEN_TOP
 10
79.411400
 20
27.042200
 40
0.000000
 41
0.000000
 42
0.000000
  0
VERTEX
  8
BG_SILKSCREEN_TOP
 10
79.335800
 20
27.084600
 40
0.000000
 41
0.000000
 42
0.000000
  0
VERTEX
  8
BG_SILKSCREEN_TOP
 10
79.260800
 20
27.128000
 40
0.000000
 41
0.000000
 42
0.000000
  0
VERTEX
  8
BG_SILKSCREEN_TOP
 10
79.186800
 20
27.173000
 40
0.000000
 41
0.000000
 42
0.000000
  0
VERTEX
  8
BG_SILKSCREEN_TOP
 10
79.118200
 20
27.225600
 40
0.000000
 41
0.000000
 42
0.000000
  0
VERTEX
  8
BG_SILKSCREEN_TOP
 10
79.062400
 20
27.290400
 40
0.000000
 41
0.000000
 42
0.000000
  0
VERTEX
  8
BG_SILKSCREEN_TOP
 10
79.036000
 20
27.370400
 40
0.000000
 41
0.000000
 42
0.000000
  0
VERTEX
  8
BG_SILKSCREEN_TOP
 10
79.045400
 20
27.453000
 40
0.000000
 41
0.000000
 42
0.000000
  0
VERTEX
  8
BG_SILKSCREEN_TOP
 10
79.088600
 20
27.522200
 40
0.000000
 41
0.000000
 42
0.000000
  0
VERTEX
  8
BG_SILKSCREEN_TOP
 10
79.158400
 20
27.561200
 40
0.000000
 41
0.000000
 42
0.000000
  0
VERTEX
  8
BG_SILKSCREEN_TOP
 10
79.237400
 20
27.570000
 40
0.000000
 41
0.000000
 42
0.000000
  0
VERTEX
  8
BG_SILKSCREEN_TOP
 10
79.312800
 20
27.548800
 40
0.000000
 41
0.000000
 42
0.000000
  0
VERTEX
  8
BG_SILKSCREEN_TOP
 10
79.368600
 20
27.496000
 40
0.000000
 41
0.000000
 42
0.000000
  0
VERTEX
  8
BG_SILKSCREEN_TOP
 10
79.397400
 20
27.425400
 40
0.000000
 41
0.000000
 42
0.000000
  0
VERTEX
  8
BG_SILKSCREEN_TOP
 10
79.408400
 20
27.350200
 40
0.000000
 41
0.000000
 42
0.000000
  0
VERTEX
  8
BG_SILKSCREEN_TOP
 10
79.415600
 20
27.274600
 40
0.000000
 41
0.000000
 42
0.000000
  0
VERTEX
  8
BG_SILKSCREEN_TOP
 10
79.425600
 20
27.274400
 40
0.000000
 41
0.000000
 42
0.000000
  0
VERTEX
  8
BG_SILKSCREEN_TOP
 10
79.445600
 20
27.273600
 40
0.000000
 41
0.000000
 42
0.000000
  0
VERTEX
  8
BG_SILKSCREEN_TOP
 10
79.455600
 20
27.273400
 40
0.000000
 41
0.000000
 42
0.000000
  0
VERTEX
  8
BG_SILKSCREEN_TOP
 10
79.475600
 20
27.272600
 40
0.000000
 41
0.000000
 42
0.000000
  0
VERTEX
  8
BG_SILKSCREEN_TOP
 10
79.485600
 20
27.272400
 40
0.000000
 41
0.000000
 42
0.000000
  0
VERTEX
  8
BG_SILKSCREEN_TOP
 10
79.495600
 20
27.272000
 40
0.000000
 41
0.000000
 42
0.000000
  0
VERTEX
  8
BG_SILKSCREEN_TOP
 10
79.505600
 20
27.271800
 40
0.000000
 41
0.000000
 42
0.000000
  0
VERTEX
  8
BG_SILKSCREEN_TOP
 10
79.515800
 20
27.271400
 40
0.000000
 41
0.000000
 42
0.000000
  0
VERTEX
  8
BG_SILKSCREEN_TOP
 10
79.525800
 20
27.271000
 40
0.000000
 41
0.000000
 42
0.000000
  0
VERTEX
  8
BG_SILKSCREEN_TOP
 10
79.535800
 20
27.270800
 40
0.000000
 41
0.000000
 42
0.000000
  0
VERTEX
  8
BG_SILKSCREEN_TOP
 10
79.555800
 20
27.270000
 40
0.000000
 41
0.000000
 42
0.000000
  0
VERTEX
  8
BG_SILKSCREEN_TOP
 10
79.565800
 20
27.269800
 40
0.000000
 41
0.000000
 42
0.000000
  0
VERTEX
  8
BG_SILKSCREEN_TOP
 10
79.585800
 20
27.269000
 40
0.000000
 41
0.000000
 42
0.000000
  0
VERTEX
  8
BG_SILKSCREEN_TOP
 10
79.595800
 20
27.268800
 40
0.000000
 41
0.000000
 42
0.000000
  0
VERTEX
  8
BG_SILKSCREEN_TOP
 10
79.615800
 20
27.268000
 40
0.000000
 41
0.000000
 42
0.000000
  0
VERTEX
  8
BG_SILKSCREEN_TOP
 10
79.626000
 20
27.267800
 40
0.000000
 41
0.000000
 42
0.000000
  0
VERTEX
  8
BG_SILKSCREEN_TOP
 10
79.636000
 20
27.267400
 40
0.000000
 41
0.000000
 42
0.000000
  0
VERTEX
  8
BG_SILKSCREEN_TOP
 10
79.646000
 20
27.267200
 40
0.000000
 41
0.000000
 42
0.000000
  0
VERTEX
  8
BG_SILKSCREEN_TOP
 10
79.666000
 20
27.266400
 40
0.000000
 41
0.000000
 42
0.000000
  0
VERTEX
  8
BG_SILKSCREEN_TOP
 10
79.676000
 20
27.266200
 40
0.000000
 41
0.000000
 42
0.000000
  0
VERTEX
  8
BG_SILKSCREEN_TOP
 10
79.696000
 20
27.265400
 40
0.000000
 41
0.000000
 42
0.000000
  0
VERTEX
  8
BG_SILKSCREEN_TOP
 10
79.706000
 20
27.265200
 40
0.000000
 41
0.000000
 42
0.000000
  0
VERTEX
  8
BG_SILKSCREEN_TOP
 10
79.726000
 20
27.264400
 40
0.000000
 41
0.000000
 42
0.000000
  0
VERTEX
  8
BG_SILKSCREEN_TOP
 10
79.736200
 20
27.264200
 40
0.000000
 41
0.000000
 42
0.000000
  0
VERTEX
  8
BG_SILKSCREEN_TOP
 10
79.756200
 20
27.263400
 40
0.000000
 41
0.000000
 42
0.000000
  0
VERTEX
  8
BG_SILKSCREEN_TOP
 10
79.766200
 20
27.263200
 40
0.000000
 41
0.000000
 42
0.000000
  0
VERTEX
  8
BG_SILKSCREEN_TOP
 10
79.776200
 20
27.262800
 40
0.000000
 41
0.000000
 42
0.000000
  0
VERTEX
  8
BG_SILKSCREEN_TOP
 10
79.786200
 20
27.262600
 40
0.000000
 41
0.000000
 42
0.000000
  0
VERTEX
  8
BG_SILKSCREEN_TOP
 10
79.806200
 20
27.261800
 40
0.000000
 41
0.000000
 42
0.000000
  0
VERTEX
  8
BG_SILKSCREEN_TOP
 10
79.816200
 20
27.261600
 40
0.000000
 41
0.000000
 42
0.000000
  0
VERTEX
  8
BG_SILKSCREEN_TOP
 10
79.826200
 20
27.261200
 40
0.000000
 41
0.000000
 42
0.000000
  0
VERTEX
  8
BG_SILKSCREEN_TOP
 10
79.836400
 20
27.260800
 40
0.000000
 41
0.000000
 42
0.000000
  0
VERTEX
  8
BG_SILKSCREEN_TOP
 10
79.846400
 20
27.260600
 40
0.000000
 41
0.000000
 42
0.000000
  0
VERTEX
  8
BG_SILKSCREEN_TOP
 10
79.866400
 20
27.259800
 40
0.000000
 41
0.000000
 42
0.000000
  0
VERTEX
  8
BG_SILKSCREEN_TOP
 10
79.876400
 20
27.259600
 40
0.000000
 41
0.000000
 42
0.000000
  0
VERTEX
  8
BG_SILKSCREEN_TOP
 10
79.886400
 20
27.259200
 40
0.000000
 41
0.000000
 42
0.000000
  0
VERTEX
  8
BG_SILKSCREEN_TOP
 10
79.896400
 20
27.259000
 40
0.000000
 41
0.000000
 42
0.000000
  0
VERTEX
  8
BG_SILKSCREEN_TOP
 10
79.916400
 20
27.258200
 40
0.000000
 41
0.000000
 42
0.000000
  0
VERTEX
  8
BG_SILKSCREEN_TOP
 10
79.914000
 20
27.285000
 40
0.000000
 41
0.000000
 42
0.000000
  0
VERTEX
  8
BG_SILKSCREEN_TOP
 10
79.909200
 20
27.338200
 40
0.000000
 41
0.000000
 42
0.000000
  0
VERTEX
  8
BG_SILKSCREEN_TOP
 10
79.906800
 20
27.365000
 40
0.000000
 41
0.000000
 42
0.000000
  0
VERTEX
  8
BG_SILKSCREEN_TOP
 10
79.904400
 20
27.391600
 40
0.000000
 41
0.000000
 42
0.000000
  0
VERTEX
  8
BG_SILKSCREEN_TOP
 10
79.902000
 20
27.418400
 40
0.000000
 41
0.000000
 42
0.000000
  0
VERTEX
  8
BG_SILKSCREEN_TOP
 10
79.899600
 20
27.445000
 40
0.000000
 41
0.000000
 42
0.000000
  0
VERTEX
  8
BG_SILKSCREEN_TOP
 10
79.896400
 20
27.471600
 40
0.000000
 41
0.000000
 42
0.000000
  0
VERTEX
  8
BG_SILKSCREEN_TOP
 10
79.892400
 20
27.498000
 40
0.000000
 41
0.000000
 42
0.000000
  0
VERTEX
  8
BG_SILKSCREEN_TOP
 10
79.887600
 20
27.524400
 40
0.000000
 41
0.000000
 42
0.000000
  0
VERTEX
  8
BG_SILKSCREEN_TOP
 10
79.882000
 20
27.550600
 40
0.000000
 41
0.000000
 42
0.000000
  0
VERTEX
  8
BG_SILKSCREEN_TOP
 10
79.875600
 20
27.576400
 40
0.000000
 41
0.000000
 42
0.000000
  0
VERTEX
  8
BG_SILKSCREEN_TOP
 10
79.867600
 20
27.601800
 40
0.000000
 41
0.000000
 42
0.000000
  0
VERTEX
  8
BG_SILKSCREEN_TOP
 10
79.857600
 20
27.626400
 40
0.000000
 41
0.000000
 42
0.000000
  0
VERTEX
  8
BG_SILKSCREEN_TOP
 10
79.845600
 20
27.650200
 40
0.000000
 41
0.000000
 42
0.000000
  0
VERTEX
  8
BG_SILKSCREEN_TOP
 10
79.832000
 20
27.673000
 40
0.000000
 41
0.000000
 42
0.000000
  0
VERTEX
  8
BG_SILKSCREEN_TOP
 10
79.816600
 20
27.694400
 40
0.000000
 41
0.000000
 42
0.000000
  0
VERTEX
  8
BG_SILKSCREEN_TOP
 10
79.799600
 20
27.714600
 40
0.000000
 41
0.000000
 42
0.000000
  0
VERTEX
  8
BG_SILKSCREEN_TOP
 10
79.781000
 20
27.733200
 40
0.000000
 41
0.000000
 42
0.000000
  0
VERTEX
  8
BG_SILKSCREEN_TOP
 10
79.760800
 20
27.750400
 40
0.000000
 41
0.000000
 42
0.000000
  0
VERTEX
  8
BG_SILKSCREEN_TOP
 10
79.740000
 20
27.766200
 40
0.000000
 41
0.000000
 42
0.000000
  0
VERTEX
  8
BG_SILKSCREEN_TOP
 10
79.718800
 20
27.781600
 40
0.000000
 41
0.000000
 42
0.000000
  0
VERTEX
  8
BG_SILKSCREEN_TOP
 10
79.697000
 20
27.796200
 40
0.000000
 41
0.000000
 42
0.000000
  0
VERTEX
  8
BG_SILKSCREEN_TOP
 10
79.674600
 20
27.810000
 40
0.000000
 41
0.000000
 42
0.000000
  0
VERTEX
  8
BG_SILKSCREEN_TOP
 10
79.652000
 20
27.823200
 40
0.000000
 41
0.000000
 42
0.000000
  0
VERTEX
  8
BG_SILKSCREEN_TOP
 10
79.628800
 20
27.835400
 40
0.000000
 41
0.000000
 42
0.000000
  0
VERTEX
  8
BG_SILKSCREEN_TOP
 10
79.605200
 20
27.846600
 40
0.000000
 41
0.000000
 42
0.000000
  0
VERTEX
  8
BG_SILKSCREEN_TOP
 10
79.581000
 20
27.856800
 40
0.000000
 41
0.000000
 42
0.000000
  0
VERTEX
  8
BG_SILKSCREEN_TOP
 10
79.556600
 20
27.865800
 40
0.000000
 41
0.000000
 42
0.000000
  0
VERTEX
  8
BG_SILKSCREEN_TOP
 10
79.531600
 20
27.873400
 40
0.000000
 41
0.000000
 42
0.000000
  0
VERTEX
  8
BG_SILKSCREEN_TOP
 10
79.506200
 20
27.879600
 40
0.000000
 41
0.000000
 42
0.000000
  0
VERTEX
  8
BG_SILKSCREEN_TOP
 10
79.480400
 20
27.884400
 40
0.000000
 41
0.000000
 42
0.000000
  0
VERTEX
  8
BG_SILKSCREEN_TOP
 10
79.454600
 20
27.888200
 40
0.000000
 41
0.000000
 42
0.000000
  0
VERTEX
  8
BG_SILKSCREEN_TOP
 10
79.428800
 20
27.891200
 40
0.000000
 41
0.000000
 42
0.000000
  0
VERTEX
  8
BG_SILKSCREEN_TOP
 10
79.402800
 20
27.893200
 40
0.000000
 41
0.000000
 42
0.000000
  0
VERTEX
  8
BG_SILKSCREEN_TOP
 10
79.376800
 20
27.894800
 40
0.000000
 41
0.000000
 42
0.000000
  0
VERTEX
  8
BG_SILKSCREEN_TOP
 10
79.324800
 20
27.897600
 40
0.000000
 41
0.000000
 42
0.000000
  0
VERTEX
  8
BG_SILKSCREEN_TOP
 10
79.298600
 20
27.898600
 40
0.000000
 41
0.000000
 42
0.000000
  0
VERTEX
  8
BG_SILKSCREEN_TOP
 10
79.246600
 20
27.899800
 40
0.000000
 41
0.000000
 42
0.000000
  0
VERTEX
  8
BG_SILKSCREEN_TOP
 10
79.220600
 20
27.900000
 40
0.000000
 41
0.000000
 42
0.000000
  0
VERTEX
  8
BG_SILKSCREEN_TOP
 10
79.194400
 20
27.900000
 40
0.000000
 41
0.000000
 42
0.000000
  0
VERTEX
  8
BG_SILKSCREEN_TOP
 10
79.168400
 20
27.899600
 40
0.000000
 41
0.000000
 42
0.000000
  0
VERTEX
  8
BG_SILKSCREEN_TOP
 10
79.142400
 20
27.899000
 40
0.000000
 41
0.000000
 42
0.000000
  0
VERTEX
  8
BG_SILKSCREEN_TOP
 10
79.116200
 20
27.898200
 40
0.000000
 41
0.000000
 42
0.000000
  0
VERTEX
  8
BG_SILKSCREEN_TOP
 10
79.090200
 20
27.897000
 40
0.000000
 41
0.000000
 42
0.000000
  0
VERTEX
  8
BG_SILKSCREEN_TOP
 10
79.064200
 20
27.895600
 40
0.000000
 41
0.000000
 42
0.000000
  0
VERTEX
  8
BG_SILKSCREEN_TOP
 10
79.038200
 20
27.893800
 40
0.000000
 41
0.000000
 42
0.000000
  0
VERTEX
  8
BG_SILKSCREEN_TOP
 10
79.012200
 20
27.891800
 40
0.000000
 41
0.000000
 42
0.000000
  0
VERTEX
  8
BG_SILKSCREEN_TOP
 10
78.946400
 20
27.878600
 40
0.000000
 41
0.000000
 42
0.000000
  0
SEQEND
  0
POLYLINE
  8
BG_SILKSCREEN_TOP
 66
1
 70
1
 40
0.000000
 41
0.000000
 39
0.000000
  0
VERTEX
  8
BG_SILKSCREEN_TOP
 10
81.517000
 20
27.838600
 40
0.000000
 41
0.000000
 42
0.000000
  0
VERTEX
  8
BG_SILKSCREEN_TOP
 10
81.499400
 20
27.839000
 40
0.000000
 41
0.000000
 42
0.000000
  0
VERTEX
  8
BG_SILKSCREEN_TOP
 10
81.482000
 20
27.839200
 40
0.000000
 41
0.000000
 42
0.000000
  0
VERTEX
  8
BG_SILKSCREEN_TOP
 10
81.464400
 20
27.839600
 40
0.000000
 41
0.000000
 42
0.000000
  0
VERTEX
  8
BG_SILKSCREEN_TOP
 10
81.446800
 20
27.839800
 40
0.000000
 41
0.000000
 42
0.000000
  0
VERTEX
  8
BG_SILKSCREEN_TOP
 10
81.429200
 20
27.840200
 40
0.000000
 41
0.000000
 42
0.000000
  0
VERTEX
  8
BG_SILKSCREEN_TOP
 10
81.411800
 20
27.840600
 40
0.000000
 41
0.000000
 42
0.000000
  0
VERTEX
  8
BG_SILKSCREEN_TOP
 10
81.394200
 20
27.840800
 40
0.000000
 41
0.000000
 42
0.000000
  0
VERTEX
  8
BG_SILKSCREEN_TOP
 10
81.376600
 20
27.841200
 40
0.000000
 41
0.000000
 42
0.000000
  0
VERTEX
  8
BG_SILKSCREEN_TOP
 10
81.359200
 20
27.841400
 40
0.000000
 41
0.000000
 42
0.000000
  0
VERTEX
  8
BG_SILKSCREEN_TOP
 10
81.341600
 20
27.841800
 40
0.000000
 41
0.000000
 42
0.000000
  0
VERTEX
  8
BG_SILKSCREEN_TOP
 10
81.324000
 20
27.842000
 40
0.000000
 41
0.000000
 42
0.000000
  0
VERTEX
  8
BG_SILKSCREEN_TOP
 10
81.306400
 20
27.842400
 40
0.000000
 41
0.000000
 42
0.000000
  0
VERTEX
  8
BG_SILKSCREEN_TOP
 10
81.289000
 20
27.842600
 40
0.000000
 41
0.000000
 42
0.000000
  0
VERTEX
  8
BG_SILKSCREEN_TOP
 10
81.271400
 20
27.843000
 40
0.000000
 41
0.000000
 42
0.000000
  0
VERTEX
  8
BG_SILKSCREEN_TOP
 10
81.253800
 20
27.843200
 40
0.000000
 41
0.000000
 42
0.000000
  0
VERTEX
  8
BG_SILKSCREEN_TOP
 10
81.236200
 20
27.843600
 40
0.000000
 41
0.000000
 42
0.000000
  0
VERTEX
  8
BG_SILKSCREEN_TOP
 10
81.218800
 20
27.844000
 40
0.000000
 41
0.000000
 42
0.000000
  0
VERTEX
  8
BG_SILKSCREEN_TOP
 10
81.201200
 20
27.844200
 40
0.000000
 41
0.000000
 42
0.000000
  0
VERTEX
  8
BG_SILKSCREEN_TOP
 10
81.183600
 20
27.844600
 40
0.000000
 41
0.000000
 42
0.000000
  0
VERTEX
  8
BG_SILKSCREEN_TOP
 10
81.166000
 20
27.844800
 40
0.000000
 41
0.000000
 42
0.000000
  0
VERTEX
  8
BG_SILKSCREEN_TOP
 10
81.148600
 20
27.845200
 40
0.000000
 41
0.000000
 42
0.000000
  0
VERTEX
  8
BG_SILKSCREEN_TOP
 10
81.131000
 20
27.845400
 40
0.000000
 41
0.000000
 42
0.000000
  0
VERTEX
  8
BG_SILKSCREEN_TOP
 10
81.113400
 20
27.845800
 40
0.000000
 41
0.000000
 42
0.000000
  0
VERTEX
  8
BG_SILKSCREEN_TOP
 10
81.096000
 20
27.846000
 40
0.000000
 41
0.000000
 42
0.000000
  0
VERTEX
  8
BG_SILKSCREEN_TOP
 10
81.078400
 20
27.846400
 40
0.000000
 41
0.000000
 42
0.000000
  0
VERTEX
  8
BG_SILKSCREEN_TOP
 10
81.060800
 20
27.846600
 40
0.000000
 41
0.000000
 42
0.000000
  0
VERTEX
  8
BG_SILKSCREEN_TOP
 10
81.043200
 20
27.847000
 40
0.000000
 41
0.000000
 42
0.000000
  0
VERTEX
  8
BG_SILKSCREEN_TOP
 10
81.025800
 20
27.847200
 40
0.000000
 41
0.000000
 42
0.000000
  0
VERTEX
  8
BG_SILKSCREEN_TOP
 10
81.008200
 20
27.847400
 40
0.000000
 41
0.000000
 42
0.000000
  0
VERTEX
  8
BG_SILKSCREEN_TOP
 10
80.990600
 20
27.847800
 40
0.000000
 41
0.000000
 42
0.000000
  0
VERTEX
  8
BG_SILKSCREEN_TOP
 10
80.973000
 20
27.848000
 40
0.000000
 41
0.000000
 42
0.000000
  0
VERTEX
  8
BG_SILKSCREEN_TOP
 10
80.955600
 20
27.848200
 40
0.000000
 41
0.000000
 42
0.000000
  0
VERTEX
  8
BG_SILKSCREEN_TOP
 10
80.902800
 20
27.848800
 40
0.000000
 41
0.000000
 42
0.000000
  0
VERTEX
  8
BG_SILKSCREEN_TOP
 10
80.885400
 20
27.849000
 40
0.000000
 41
0.000000
 42
0.000000
  0
VERTEX
  8
BG_SILKSCREEN_TOP
 10
80.850200
 20
27.849400
 40
0.000000
 41
0.000000
 42
0.000000
  0
VERTEX
  8
BG_SILKSCREEN_TOP
 10
80.832800
 20
27.849600
 40
0.000000
 41
0.000000
 42
0.000000
  0
VERTEX
  8
BG_SILKSCREEN_TOP
 10
80.815200
 20
27.849800
 40
0.000000
 41
0.000000
 42
0.000000
  0
VERTEX
  8
BG_SILKSCREEN_TOP
 10
80.797600
 20
27.849600
 40
0.000000
 41
0.000000
 42
0.000000
  0
VERTEX
  8
BG_SILKSCREEN_TOP
 10
80.780000
 20
27.849000
 40
0.000000
 41
0.000000
 42
0.000000
  0
VERTEX
  8
BG_SILKSCREEN_TOP
 10
80.762600
 20
27.848000
 40
0.000000
 41
0.000000
 42
0.000000
  0
VERTEX
  8
BG_SILKSCREEN_TOP
 10
80.745000
 20
27.846600
 40
0.000000
 41
0.000000
 42
0.000000
  0
VERTEX
  8
BG_SILKSCREEN_TOP
 10
80.727600
 20
27.844800
 40
0.000000
 41
0.000000
 42
0.000000
  0
VERTEX
  8
BG_SILKSCREEN_TOP
 10
80.710600
 20
27.841600
 40
0.000000
 41
0.000000
 42
0.000000
  0
VERTEX
  8
BG_SILKSCREEN_TOP
 10
80.694200
 20
27.835200
 40
0.000000
 41
0.000000
 42
0.000000
  0
VERTEX
  8
BG_SILKSCREEN_TOP
 10
80.679400
 20
27.826200
 40
0.000000
 41
0.000000
 42
0.000000
  0
VERTEX
  8
BG_SILKSCREEN_TOP
 10
80.653800
 20
27.781800
 40
0.000000
 41
0.000000
 42
0.000000
  0
VERTEX
  8
BG_SILKSCREEN_TOP
 10
80.642400
 20
27.731200
 40
0.000000
 41
0.000000
 42
0.000000
  0
VERTEX
  8
BG_SILKSCREEN_TOP
 10
80.632000
 20
27.680600
 40
0.000000
 41
0.000000
 42
0.000000
  0
VERTEX
  8
BG_SILKSCREEN_TOP
 10
80.622200
 20
27.629800
 40
0.000000
 41
0.000000
 42
0.000000
  0
VERTEX
  8
BG_SILKSCREEN_TOP
 10
80.612800
 20
27.578800
 40
0.000000
 41
0.000000
 42
0.000000
  0
VERTEX
  8
BG_SILKSCREEN_TOP
 10
80.594000
 20
27.477200
 40
0.000000
 41
0.000000
 42
0.000000
  0
VERTEX
  8
BG_SILKSCREEN_TOP
 10
80.584600
 20
27.426200
 40
0.000000
 41
0.000000
 42
0.000000
  0
VERTEX
  8
BG_SILKSCREEN_TOP
 10
80.575200
 20
27.375400
 40
0.000000
 41
0.000000
 42
0.000000
  0
VERTEX
  8
BG_SILKSCREEN_TOP
 10
80.565800
 20
27.324400
 40
0.000000
 41
0.000000
 42
0.000000
  0
VERTEX
  8
BG_SILKSCREEN_TOP
 10
80.556200
 20
27.273600
 40
0.000000
 41
0.000000
 42
0.000000
  0
VERTEX
  8
BG_SILKSCREEN_TOP
 10
80.546800
 20
27.222800
 40
0.000000
 41
0.000000
 42
0.000000
  0
VERTEX
  8
BG_SILKSCREEN_TOP
 10
80.537400
 20
27.171800
 40
0.000000
 41
0.000000
 42
0.000000
  0
VERTEX
  8
BG_SILKSCREEN_TOP
 10
80.518600
 20
27.070200
 40
0.000000
 41
0.000000
 42
0.000000
  0
VERTEX
  8
BG_SILKSCREEN_TOP
 10
80.509200
 20
27.019200
 40
0.000000
 41
0.000000
 42
0.000000
  0
VERTEX
  8
BG_SILKSCREEN_TOP
 10
80.499600
 20
26.968400
 40
0.000000
 41
0.000000
 42
0.000000
  0
VERTEX
  8
BG_SILKSCREEN_TOP
 10
80.490200
 20
26.917400
 40
0.000000
 41
0.000000
 42
0.000000
  0
VERTEX
  8
BG_SILKSCREEN_TOP
 10
80.471400
 20
26.815800
 40
0.000000
 41
0.000000
 42
0.000000
  0
VERTEX
  8
BG_SILKSCREEN_TOP
 10
80.462000
 20
26.764800
 40
0.000000
 41
0.000000
 42
0.000000
  0
VERTEX
  8
BG_SILKSCREEN_TOP
 10
80.452600
 20
26.714000
 40
0.000000
 41
0.000000
 42
0.000000
  0
VERTEX
  8
BG_SILKSCREEN_TOP
 10
80.443200
 20
26.663000
 40
0.000000
 41
0.000000
 42
0.000000
  0
VERTEX
  8
BG_SILKSCREEN_TOP
 10
80.424400
 20
26.561400
 40
0.000000
 41
0.000000
 42
0.000000
  0
VERTEX
  8
BG_SILKSCREEN_TOP
 10
80.415000
 20
26.510400
 40
0.000000
 41
0.000000
 42
0.000000
  0
VERTEX
  8
BG_SILKSCREEN_TOP
 10
80.405800
 20
26.459600
 40
0.000000
 41
0.000000
 42
0.000000
  0
VERTEX
  8
BG_SILKSCREEN_TOP
 10
80.396400
 20
26.408600
 40
0.000000
 41
0.000000
 42
0.000000
  0
VERTEX
  8
BG_SILKSCREEN_TOP
 10
80.377600
 20
26.307000
 40
0.000000
 41
0.000000
 42
0.000000
  0
VERTEX
  8
BG_SILKSCREEN_TOP
 10
80.368200
 20
26.256000
 40
0.000000
 41
0.000000
 42
0.000000
  0
VERTEX
  8
BG_SILKSCREEN_TOP
 10
80.358800
 20
26.205200
 40
0.000000
 41
0.000000
 42
0.000000
  0
VERTEX
  8
BG_SILKSCREEN_TOP
 10
80.349400
 20
26.154200
 40
0.000000
 41
0.000000
 42
0.000000
  0
VERTEX
  8
BG_SILKSCREEN_TOP
 10
80.330600
 20
26.052600
 40
0.000000
 41
0.000000
 42
0.000000
  0
VERTEX
  8
BG_SILKSCREEN_TOP
 10
80.321200
 20
26.001600
 40
0.000000
 41
0.000000
 42
0.000000
  0
VERTEX
  8
BG_SILKSCREEN_TOP
 10
80.311800
 20
25.950800
 40
0.000000
 41
0.000000
 42
0.000000
  0
VERTEX
  8
BG_SILKSCREEN_TOP
 10
80.303600
 20
25.899600
 40
0.000000
 41
0.000000
 42
0.000000
  0
VERTEX
  8
BG_SILKSCREEN_TOP
 10
80.326000
 20
25.866400
 40
0.000000
 41
0.000000
 42
0.000000
  0
VERTEX
  8
BG_SILKSCREEN_TOP
 10
80.371000
 20
25.860400
 40
0.000000
 41
0.000000
 42
0.000000
  0
VERTEX
  8
BG_SILKSCREEN_TOP
 10
80.416400
 20
25.856200
 40
0.000000
 41
0.000000
 42
0.000000
  0
VERTEX
  8
BG_SILKSCREEN_TOP
 10
80.462000
 20
25.853800
 40
0.000000
 41
0.000000
 42
0.000000
  0
VERTEX
  8
BG_SILKSCREEN_TOP
 10
80.507600
 20
25.852600
 40
0.000000
 41
0.000000
 42
0.000000
  0
VERTEX
  8
BG_SILKSCREEN_TOP
 10
80.553000
 20
25.852200
 40
0.000000
 41
0.000000
 42
0.000000
  0
VERTEX
  8
BG_SILKSCREEN_TOP
 10
80.826400
 20
25.852200
 40
0.000000
 41
0.000000
 42
0.000000
  0
VERTEX
  8
BG_SILKSCREEN_TOP
 10
80.837000
 20
25.922600
 40
0.000000
 41
0.000000
 42
0.000000
  0
VERTEX
  8
BG_SILKSCREEN_TOP
 10
80.847600
 20
25.993200
 40
0.000000
 41
0.000000
 42
0.000000
  0
VERTEX
  8
BG_SILKSCREEN_TOP
 10
80.858000
 20
26.063800
 40
0.000000
 41
0.000000
 42
0.000000
  0
VERTEX
  8
BG_SILKSCREEN_TOP
 10
80.868600
 20
26.134200
 40
0.000000
 41
0.000000
 42
0.000000
  0
VERTEX
  8
BG_SILKSCREEN_TOP
 10
80.889800
 20
26.275400
 40
0.000000
 41
0.000000
 42
0.000000
  0
VERTEX
  8
BG_SILKSCREEN_TOP
 10
80.900200
 20
26.346000
 40
0.000000
 41
0.000000
 42
0.000000
  0
VERTEX
  8
BG_SILKSCREEN_TOP
 10
80.910800
 20
26.416400
 40
0.000000
 41
0.000000
 42
0.000000
  0
VERTEX
  8
BG_SILKSCREEN_TOP
 10
80.932000
 20
26.557600
 40
0.000000
 41
0.000000
 42
0.000000
  0
VERTEX
  8
BG_SILKSCREEN_TOP
 10
80.942600
 20
26.628000
 40
0.000000
 41
0.000000
 42
0.000000
  0
VERTEX
  8
BG_SILKSCREEN_TOP
 10
80.963800
 20
26.769200
 40
0.000000
 41
0.000000
 42
0.000000
  0
VERTEX
  8
BG_SILKSCREEN_TOP
 10
80.974400
 20
26.839600
 40
0.000000
 41
0.000000
 42
0.000000
  0
VERTEX
  8
BG_SILKSCREEN_TOP
 10
80.985000
 20
26.910200
 40
0.000000
 41
0.000000
 42
0.000000
  0
VERTEX
  8
BG_SILKSCREEN_TOP
 10
80.995800
 20
26.980600
 40
0.000000
 41
0.000000
 42
0.000000
  0
VERTEX
  8
BG_SILKSCREEN_TOP
 10
81.006600
 20
27.051200
 40
0.000000
 41
0.000000
 42
0.000000
  0
VERTEX
  8
BG_SILKSCREEN_TOP
 10
81.017200
 20
27.121800
 40
0.000000
 41
0.000000
 42
0.000000
  0
VERTEX
  8
BG_SILKSCREEN_TOP
 10
81.028200
 20
27.192200
 40
0.000000
 41
0.000000
 42
0.000000
  0
VERTEX
  8
BG_SILKSCREEN_TOP
 10
81.039000
 20
27.262600
 40
0.000000
 41
0.000000
 42
0.000000
  0
VERTEX
  8
BG_SILKSCREEN_TOP
 10
81.050600
 20
27.333000
 40
0.000000
 41
0.000000
 42
0.000000
  0
VERTEX
  8
BG_SILKSCREEN_TOP
 10
81.062800
 20
27.403400
 40
0.000000
 41
0.000000
 42
0.000000
  0
VERTEX
  8
BG_SILKSCREEN_TOP
 10
81.075800
 20
27.473400
 40
0.000000
 41
0.000000
 42
0.000000
  0
VERTEX
  8
BG_SILKSCREEN_TOP
 10
81.091000
 20
27.543200
 40
0.000000
 41
0.000000
 42
0.000000
  0
VERTEX
  8
BG_SILKSCREEN_TOP
 10
81.117800
 20
27.606000
 40
0.000000
 41
0.000000
 42
0.000000
  0
VERTEX
  8
BG_SILKSCREEN_TOP
 10
81.142000
 20
27.541400
 40
0.000000
 41
0.000000
 42
0.000000
  0
VERTEX
  8
BG_SILKSCREEN_TOP
 10
81.152400
 20
27.471200
 40
0.000000
 41
0.000000
 42
0.000000
  0
VERTEX
  8
BG_SILKSCREEN_TOP
 10
81.162800
 20
27.400800
 40
0.000000
 41
0.000000
 42
0.000000
  0
VERTEX
  8
BG_SILKSCREEN_TOP
 10
81.173000
 20
27.330400
 40
0.000000
 41
0.000000
 42
0.000000
  0
VERTEX
  8
BG_SILKSCREEN_TOP
 10
81.183400
 20
27.260200
 40
0.000000
 41
0.000000
 42
0.000000
  0
VERTEX
  8
BG_SILKSCREEN_TOP
 10
81.193800
 20
27.189800
 40
0.000000
 41
0.000000
 42
0.000000
  0
VERTEX
  8
BG_SILKSCREEN_TOP
 10
81.204200
 20
27.119600
 40
0.000000
 41
0.000000
 42
0.000000
  0
VERTEX
  8
BG_SILKSCREEN_TOP
 10
81.214600
 20
27.049200
 40
0.000000
 41
0.000000
 42
0.000000
  0
VERTEX
  8
BG_SILKSCREEN_TOP
 10
81.235000
 20
26.908400
 40
0.000000
 41
0.000000
 42
0.000000
  0
VERTEX
  8
BG_SILKSCREEN_TOP
 10
81.245200
 20
26.838200
 40
0.000000
 41
0.000000
 42
0.000000
  0
VERTEX
  8
BG_SILKSCREEN_TOP
 10
81.265600
 20
26.697400
 40
0.000000
 41
0.000000
 42
0.000000
  0
VERTEX
  8
BG_SILKSCREEN_TOP
 10
81.285600
 20
26.556600
 40
0.000000
 41
0.000000
 42
0.000000
  0
VERTEX
  8
BG_SILKSCREEN_TOP
 10
81.315000
 20
26.345400
 40
0.000000
 41
0.000000
 42
0.000000
  0
VERTEX
  8
BG_SILKSCREEN_TOP
 10
81.324600
 20
26.275000
 40
0.000000
 41
0.000000
 42
0.000000
  0
VERTEX
  8
BG_SILKSCREEN_TOP
 10
81.334000
 20
26.204600
 40
0.000000
 41
0.000000
 42
0.000000
  0
VERTEX
  8
BG_SILKSCREEN_TOP
 10
81.343400
 20
26.134000
 40
0.000000
 41
0.000000
 42
0.000000
  0
VERTEX
  8
BG_SILKSCREEN_TOP
 10
81.352800
 20
26.063600
 40
0.000000
 41
0.000000
 42
0.000000
  0
VERTEX
  8
BG_SILKSCREEN_TOP
 10
81.362000
 20
25.993200
 40
0.000000
 41
0.000000
 42
0.000000
  0
VERTEX
  8
BG_SILKSCREEN_TOP
 10
81.371200
 20
25.922600
 40
0.000000
 41
0.000000
 42
0.000000
  0
VERTEX
  8
BG_SILKSCREEN_TOP
 10
81.380600
 20
25.852200
 40
0.000000
 41
0.000000
 42
0.000000
  0
VERTEX
  8
BG_SILKSCREEN_TOP
 10
81.656200
 20
25.852200
 40
0.000000
 41
0.000000
 42
0.000000
  0
VERTEX
  8
BG_SILKSCREEN_TOP
 10
81.711400
 20
25.852600
 40
0.000000
 41
0.000000
 42
0.000000
  0
VERTEX
  8
BG_SILKSCREEN_TOP
 10
81.766600
 20
25.853600
 40
0.000000
 41
0.000000
 42
0.000000
  0
VERTEX
  8
BG_SILKSCREEN_TOP
 10
81.821600
 20
25.857000
 40
0.000000
 41
0.000000
 42
0.000000
  0
VERTEX
  8
BG_SILKSCREEN_TOP
 10
81.876000
 20
25.865200
 40
0.000000
 41
0.000000
 42
0.000000
  0
VERTEX
  8
BG_SILKSCREEN_TOP
 10
81.906400
 20
25.898200
 40
0.000000
 41
0.000000
 42
0.000000
  0
VERTEX
  8
BG_SILKSCREEN_TOP
 10
81.898400
 20
25.946800
 40
0.000000
 41
0.000000
 42
0.000000
  0
VERTEX
  8
BG_SILKSCREEN_TOP
 10
81.889800
 20
25.995400
 40
0.000000
 41
0.000000
 42
0.000000
  0
VERTEX
  8
BG_SILKSCREEN_TOP
 10
81.881200
 20
26.043800
 40
0.000000
 41
0.000000
 42
0.000000
  0
VERTEX
  8
BG_SILKSCREEN_TOP
 10
81.872400
 20
26.092400
 40
0.000000
 41
0.000000
 42
0.000000
  0
VERTEX
  8
BG_SILKSCREEN_TOP
 10
81.863800
 20
26.141000
 40
0.000000
 41
0.000000
 42
0.000000
  0
VERTEX
  8
BG_SILKSCREEN_TOP
 10
81.855000
 20
26.189400
 40
0.000000
 41
0.000000
 42
0.000000
  0
VERTEX
  8
BG_SILKSCREEN_TOP
 10
81.846400
 20
26.238000
 40
0.000000
 41
0.000000
 42
0.000000
  0
VERTEX
  8
BG_SILKSCREEN_TOP
 10
81.837600
 20
26.286400
 40
0.000000
 41
0.000000
 42
0.000000
  0
VERTEX
  8
BG_SILKSCREEN_TOP
 10
81.828800
 20
26.335000
 40
0.000000
 41
0.000000
 42
0.000000
  0
VERTEX
  8
BG_SILKSCREEN_TOP
 10
81.820000
 20
26.383400
 40
0.000000
 41
0.000000
 42
0.000000
  0
VERTEX
  8
BG_SILKSCREEN_TOP
 10
81.802400
 20
26.480600
 40
0.000000
 41
0.000000
 42
0.000000
  0
VERTEX
  8
BG_SILKSCREEN_TOP
 10
81.793600
 20
26.529000
 40
0.000000
 41
0.000000
 42
0.000000
  0
VERTEX
  8
BG_SILKSCREEN_TOP
 10
81.784600
 20
26.577400
 40
0.000000
 41
0.000000
 42
0.000000
  0
VERTEX
  8
BG_SILKSCREEN_TOP
 10
81.775800
 20
26.626000
 40
0.000000
 41
0.000000
 42
0.000000
  0
VERTEX
  8
BG_SILKSCREEN_TOP
 10
81.766800
 20
26.674400
 40
0.000000
 41
0.000000
 42
0.000000
  0
VERTEX
  8
BG_SILKSCREEN_TOP
 10
81.758000
 20
26.723000
 40
0.000000
 41
0.000000
 42
0.000000
  0
VERTEX
  8
BG_SILKSCREEN_TOP
 10
81.749000
 20
26.771400
 40
0.000000
 41
0.000000
 42
0.000000
  0
VERTEX
  8
BG_SILKSCREEN_TOP
 10
81.740200
 20
26.820000
 40
0.000000
 41
0.000000
 42
0.000000
  0
VERTEX
  8
BG_SILKSCREEN_TOP
 10
81.731200
 20
26.868400
 40
0.000000
 41
0.000000
 42
0.000000
  0
VERTEX
  8
BG_SILKSCREEN_TOP
 10
81.722200
 20
26.917000
 40
0.000000
 41
0.000000
 42
0.000000
  0
VERTEX
  8
BG_SILKSCREEN_TOP
 10
81.713200
 20
26.965400
 40
0.000000
 41
0.000000
 42
0.000000
  0
VERTEX
  8
BG_SILKSCREEN_TOP
 10
81.704400
 20
27.013800
 40
0.000000
 41
0.000000
 42
0.000000
  0
VERTEX
  8
BG_SILKSCREEN_TOP
 10
81.695400
 20
27.062400
 40
0.000000
 41
0.000000
 42
0.000000
  0
VERTEX
  8
BG_SILKSCREEN_TOP
 10
81.686400
 20
27.110800
 40
0.000000
 41
0.000000
 42
0.000000
  0
VERTEX
  8
BG_SILKSCREEN_TOP
 10
81.677400
 20
27.159400
 40
0.000000
 41
0.000000
 42
0.000000
  0
VERTEX
  8
BG_SILKSCREEN_TOP
 10
81.668600
 20
27.207800
 40
0.000000
 41
0.000000
 42
0.000000
  0
VERTEX
  8
BG_SILKSCREEN_TOP
 10
81.659600
 20
27.256200
 40
0.000000
 41
0.000000
 42
0.000000
  0
VERTEX
  8
BG_SILKSCREEN_TOP
 10
81.650600
 20
27.304800
 40
0.000000
 41
0.000000
 42
0.000000
  0
VERTEX
  8
BG_SILKSCREEN_TOP
 10
81.641600
 20
27.353200
 40
0.000000
 41
0.000000
 42
0.000000
  0
VERTEX
  8
BG_SILKSCREEN_TOP
 10
81.632800
 20
27.401800
 40
0.000000
 41
0.000000
 42
0.000000
  0
VERTEX
  8
BG_SILKSCREEN_TOP
 10
81.614800
 20
27.498600
 40
0.000000
 41
0.000000
 42
0.000000
  0
VERTEX
  8
BG_SILKSCREEN_TOP
 10
81.605800
 20
27.547200
 40
0.000000
 41
0.000000
 42
0.000000
  0
VERTEX
  8
BG_SILKSCREEN_TOP
 10
81.596800
 20
27.595600
 40
0.000000
 41
0.000000
 42
0.000000
  0
VERTEX
  8
BG_SILKSCREEN_TOP
 10
81.588000
 20
27.644200
 40
0.000000
 41
0.000000
 42
0.000000
  0
VERTEX
  8
BG_SILKSCREEN_TOP
 10
81.570000
 20
27.741000
 40
0.000000
 41
0.000000
 42
0.000000
  0
VERTEX
  8
BG_SILKSCREEN_TOP
 10
81.561000
 20
27.789600
 40
0.000000
 41
0.000000
 42
0.000000
  0
VERTEX
  8
BG_SILKSCREEN_TOP
 10
81.552200
 20
27.838000
 40
0.000000
 41
0.000000
 42
0.000000
  0
VERTEX
  8
BG_SILKSCREEN_TOP
 10
81.534600
 20
27.838400
 40
0.000000
 41
0.000000
 42
0.000000
  0
SEQEND
  0
POLYLINE
  8
BG_SILKSCREEN_TOP
 66
1
 70
1
 40
0.000000
 41
0.000000
 39
0.000000
  0
VERTEX
  8
BG_SILKSCREEN_TOP
 10
91.677000
 20
27.888200
 40
0.000000
 41
0.000000
 42
0.000000
  0
VERTEX
  8
BG_SILKSCREEN_TOP
 10
91.584400
 20
27.868200
 40
0.000000
 41
0.000000
 42
0.000000
  0
VERTEX
  8
BG_SILKSCREEN_TOP
 10
91.494600
 20
27.837800
 40
0.000000
 41
0.000000
 42
0.000000
  0
VERTEX
  8
BG_SILKSCREEN_TOP
 10
91.410000
 20
27.796200
 40
0.000000
 41
0.000000
 42
0.000000
  0
VERTEX
  8
BG_SILKSCREEN_TOP
 10
91.333800
 20
27.741400
 40
0.000000
 41
0.000000
 42
0.000000
  0
VERTEX
  8
BG_SILKSCREEN_TOP
 10
91.269200
 20
27.673400
 40
0.000000
 41
0.000000
 42
0.000000
  0
VERTEX
  8
BG_SILKSCREEN_TOP
 10
91.220000
 20
27.594400
 40
0.000000
 41
0.000000
 42
0.000000
  0
VERTEX
  8
BG_SILKSCREEN_TOP
 10
91.193400
 20
27.506200
 40
0.000000
 41
0.000000
 42
0.000000
  0
VERTEX
  8
BG_SILKSCREEN_TOP
 10
91.188200
 20
27.414200
 40
0.000000
 41
0.000000
 42
0.000000
  0
VERTEX
  8
BG_SILKSCREEN_TOP
 10
91.184000
 20
27.322200
 40
0.000000
 41
0.000000
 42
0.000000
  0
VERTEX
  8
BG_SILKSCREEN_TOP
 10
91.180800
 20
27.230000
 40
0.000000
 41
0.000000
 42
0.000000
  0
VERTEX
  8
BG_SILKSCREEN_TOP
 10
91.178600
 20
27.138000
 40
0.000000
 41
0.000000
 42
0.000000
  0
VERTEX
  8
BG_SILKSCREEN_TOP
 10
91.177200
 20
27.045800
 40
0.000000
 41
0.000000
 42
0.000000
  0
VERTEX
  8
BG_SILKSCREEN_TOP
 10
91.176400
 20
26.953800
 40
0.000000
 41
0.000000
 42
0.000000
  0
VERTEX
  8
BG_SILKSCREEN_TOP
 10
91.176000
 20
26.861600
 40
0.000000
 41
0.000000
 42
0.000000
  0
VERTEX
  8
BG_SILKSCREEN_TOP
 10
91.176000
 20
26.677400
 40
0.000000
 41
0.000000
 42
0.000000
  0
VERTEX
  8
BG_SILKSCREEN_TOP
 10
91.176400
 20
26.585200
 40
0.000000
 41
0.000000
 42
0.000000
  0
VERTEX
  8
BG_SILKSCREEN_TOP
 10
91.176800
 20
26.493200
 40
0.000000
 41
0.000000
 42
0.000000
  0
VERTEX
  8
BG_SILKSCREEN_TOP
 10
91.177200
 20
26.401000
 40
0.000000
 41
0.000000
 42
0.000000
  0
VERTEX
  8
BG_SILKSCREEN_TOP
 10
91.180400
 20
26.309000
 40
0.000000
 41
0.000000
 42
0.000000
  0
VERTEX
  8
BG_SILKSCREEN_TOP
 10
91.188200
 20
26.217400
 40
0.000000
 41
0.000000
 42
0.000000
  0
VERTEX
  8
BG_SILKSCREEN_TOP
 10
91.211600
 20
26.128800
 40
0.000000
 41
0.000000
 42
0.000000
  0
VERTEX
  8
BG_SILKSCREEN_TOP
 10
91.257600
 20
26.050400
 40
0.000000
 41
0.000000
 42
0.000000
  0
VERTEX
  8
BG_SILKSCREEN_TOP
 10
91.318200
 20
25.982800
 40
0.000000
 41
0.000000
 42
0.000000
  0
VERTEX
  8
BG_SILKSCREEN_TOP
 10
91.388600
 20
25.926000
 40
0.000000
 41
0.000000
 42
0.000000
  0
VERTEX
  8
BG_SILKSCREEN_TOP
 10
91.467000
 20
25.881400
 40
0.000000
 41
0.000000
 42
0.000000
  0
VERTEX
  8
BG_SILKSCREEN_TOP
 10
91.550800
 20
25.848400
 40
0.000000
 41
0.000000
 42
0.000000
  0
VERTEX
  8
BG_SILKSCREEN_TOP
 10
91.637600
 20
25.824800
 40
0.000000
 41
0.000000
 42
0.000000
  0
VERTEX
  8
BG_SILKSCREEN_TOP
 10
91.726000
 20
25.809200
 40
0.000000
 41
0.000000
 42
0.000000
  0
VERTEX
  8
BG_SILKSCREEN_TOP
 10
91.815400
 20
25.801400
 40
0.000000
 41
0.000000
 42
0.000000
  0
VERTEX
  8
BG_SILKSCREEN_TOP
 10
91.905000
 20
25.801400
 40
0.000000
 41
0.000000
 42
0.000000
  0
VERTEX
  8
BG_SILKSCREEN_TOP
 10
91.993800
 20
25.809000
 40
0.000000
 41
0.000000
 42
0.000000
  0
VERTEX
  8
BG_SILKSCREEN_TOP
 10
92.081800
 20
25.824200
 40
0.000000
 41
0.000000
 42
0.000000
  0
VERTEX
  8
BG_SILKSCREEN_TOP
 10
92.168000
 20
25.847000
 40
0.000000
 41
0.000000
 42
0.000000
  0
VERTEX
  8
BG_SILKSCREEN_TOP
 10
92.251000
 20
25.877600
 40
0.000000
 41
0.000000
 42
0.000000
  0
VERTEX
  8
BG_SILKSCREEN_TOP
 10
92.330600
 20
25.917000
 40
0.000000
 41
0.000000
 42
0.000000
  0
VERTEX
  8
BG_SILKSCREEN_TOP
 10
92.404600
 20
25.964400
 40
0.000000
 41
0.000000
 42
0.000000
  0
VERTEX
  8
BG_SILKSCREEN_TOP
 10
92.467400
 20
26.025400
 40
0.000000
 41
0.000000
 42
0.000000
  0
VERTEX
  8
BG_SILKSCREEN_TOP
 10
92.514800
 20
26.098400
 40
0.000000
 41
0.000000
 42
0.000000
  0
VERTEX
  8
BG_SILKSCREEN_TOP
 10
92.545600
 20
26.178800
 40
0.000000
 41
0.000000
 42
0.000000
  0
VERTEX
  8
BG_SILKSCREEN_TOP
 10
92.562400
 20
26.263200
 40
0.000000
 41
0.000000
 42
0.000000
  0
VERTEX
  8
BG_SILKSCREEN_TOP
 10
92.570800
 20
26.349000
 40
0.000000
 41
0.000000
 42
0.000000
  0
VERTEX
  8
BG_SILKSCREEN_TOP
 10
92.574800
 20
26.434800
 40
0.000000
 41
0.000000
 42
0.000000
  0
VERTEX
  8
BG_SILKSCREEN_TOP
 10
92.577800
 20
26.520800
 40
0.000000
 41
0.000000
 42
0.000000
  0
VERTEX
  8
BG_SILKSCREEN_TOP
 10
92.580200
 20
26.606800
 40
0.000000
 41
0.000000
 42
0.000000
  0
VERTEX
  8
BG_SILKSCREEN_TOP
 10
92.582400
 20
26.692800
 40
0.000000
 41
0.000000
 42
0.000000
  0
VERTEX
  8
BG_SILKSCREEN_TOP
 10
92.584400
 20
26.778800
 40
0.000000
 41
0.000000
 42
0.000000
  0
VERTEX
  8
BG_SILKSCREEN_TOP
 10
92.586600
 20
26.864800
 40
0.000000
 41
0.000000
 42
0.000000
  0
VERTEX
  8
BG_SILKSCREEN_TOP
 10
92.588600
 20
26.950800
 40
0.000000
 41
0.000000
 42
0.000000
  0
VERTEX
  8
BG_SILKSCREEN_TOP
 10
91.880200
 20
26.950800
 40
0.000000
 41
0.000000
 42
0.000000
  0
VERTEX
  8
BG_SILKSCREEN_TOP
 10
91.880200
 20
26.669000
 40
0.000000
 41
0.000000
 42
0.000000
  0
VERTEX
  8
BG_SILKSCREEN_TOP
 10
92.077400
 20
26.669000
 40
0.000000
 41
0.000000
 42
0.000000
  0
VERTEX
  8
BG_SILKSCREEN_TOP
 10
92.077200
 20
26.608800
 40
0.000000
 41
0.000000
 42
0.000000
  0
VERTEX
  8
BG_SILKSCREEN_TOP
 10
92.077200
 20
26.488200
 40
0.000000
 41
0.000000
 42
0.000000
  0
VERTEX
  8
BG_SILKSCREEN_TOP
 10
92.076400
 20
26.428000
 40
0.000000
 41
0.000000
 42
0.000000
  0
VERTEX
  8
BG_SILKSCREEN_TOP
 10
92.073000
 20
26.368000
 40
0.000000
 41
0.000000
 42
0.000000
  0
VERTEX
  8
BG_SILKSCREEN_TOP
 10
92.066600
 20
26.308200
 40
0.000000
 41
0.000000
 42
0.000000
  0
VERTEX
  8
BG_SILKSCREEN_TOP
 10
92.048600
 20
26.251400
 40
0.000000
 41
0.000000
 42
0.000000
  0
VERTEX
  8
BG_SILKSCREEN_TOP
 10
92.015400
 20
26.203600
 40
0.000000
 41
0.000000
 42
0.000000
  0
VERTEX
  8
BG_SILKSCREEN_TOP
 10
91.965200
 20
26.175600
 40
0.000000
 41
0.000000
 42
0.000000
  0
VERTEX
  8
BG_SILKSCREEN_TOP
 10
91.909600
 20
26.163800
 40
0.000000
 41
0.000000
 42
0.000000
  0
VERTEX
  8
BG_SILKSCREEN_TOP
 10
91.853200
 20
26.162800
 40
0.000000
 41
0.000000
 42
0.000000
  0
VERTEX
  8
BG_SILKSCREEN_TOP
 10
91.797600
 20
26.171400
 40
0.000000
 41
0.000000
 42
0.000000
  0
VERTEX
  8
BG_SILKSCREEN_TOP
 10
91.745600
 20
26.192200
 40
0.000000
 41
0.000000
 42
0.000000
  0
VERTEX
  8
BG_SILKSCREEN_TOP
 10
91.702800
 20
26.227400
 40
0.000000
 41
0.000000
 42
0.000000
  0
VERTEX
  8
BG_SILKSCREEN_TOP
 10
91.677600
 20
26.276000
 40
0.000000
 41
0.000000
 42
0.000000
  0
VERTEX
  8
BG_SILKSCREEN_TOP
 10
91.665800
 20
26.329200
 40
0.000000
 41
0.000000
 42
0.000000
  0
VERTEX
  8
BG_SILKSCREEN_TOP
 10
91.660600
 20
26.383400
 40
0.000000
 41
0.000000
 42
0.000000
  0
VERTEX
  8
BG_SILKSCREEN_TOP
 10
91.657600
 20
26.437800
 40
0.000000
 41
0.000000
 42
0.000000
  0
VERTEX
  8
BG_SILKSCREEN_TOP
 10
91.656200
 20
26.492200
 40
0.000000
 41
0.000000
 42
0.000000
  0
VERTEX
  8
BG_SILKSCREEN_TOP
 10
91.655400
 20
26.601000
 40
0.000000
 41
0.000000
 42
0.000000
  0
VERTEX
  8
BG_SILKSCREEN_TOP
 10
91.654800
 20
26.764200
 40
0.000000
 41
0.000000
 42
0.000000
  0
VERTEX
  8
BG_SILKSCREEN_TOP
 10
91.654800
 20
26.927600
 40
0.000000
 41
0.000000
 42
0.000000
  0
VERTEX
  8
BG_SILKSCREEN_TOP
 10
91.655600
 20
27.145200
 40
0.000000
 41
0.000000
 42
0.000000
  0
VERTEX
  8
BG_SILKSCREEN_TOP
 10
91.656000
 20
27.199600
 40
0.000000
 41
0.000000
 42
0.000000
  0
VERTEX
  8
BG_SILKSCREEN_TOP
 10
91.656800
 20
27.254000
 40
0.000000
 41
0.000000
 42
0.000000
  0
VERTEX
  8
BG_SILKSCREEN_TOP
 10
91.659600
 20
27.308200
 40
0.000000
 41
0.000000
 42
0.000000
  0
VERTEX
  8
BG_SILKSCREEN_TOP
 10
91.664600
 20
27.362400
 40
0.000000
 41
0.000000
 42
0.000000
  0
VERTEX
  8
BG_SILKSCREEN_TOP
 10
91.677600
 20
27.414800
 40
0.000000
 41
0.000000
 42
0.000000
  0
VERTEX
  8
BG_SILKSCREEN_TOP
 10
91.702800
 20
27.462000
 40
0.000000
 41
0.000000
 42
0.000000
  0
VERTEX
  8
BG_SILKSCREEN_TOP
 10
91.740800
 20
27.498600
 40
0.000000
 41
0.000000
 42
0.000000
  0
VERTEX
  8
BG_SILKSCREEN_TOP
 10
91.786400
 20
27.525000
 40
0.000000
 41
0.000000
 42
0.000000
  0
VERTEX
  8
BG_SILKSCREEN_TOP
 10
91.836200
 20
27.540600
 40
0.000000
 41
0.000000
 42
0.000000
  0
VERTEX
  8
BG_SILKSCREEN_TOP
 10
91.886800
 20
27.543600
 40
0.000000
 41
0.000000
 42
0.000000
  0
VERTEX
  8
BG_SILKSCREEN_TOP
 10
91.936800
 20
27.532800
 40
0.000000
 41
0.000000
 42
0.000000
  0
VERTEX
  8
BG_SILKSCREEN_TOP
 10
91.980600
 20
27.510200
 40
0.000000
 41
0.000000
 42
0.000000
  0
VERTEX
  8
BG_SILKSCREEN_TOP
 10
92.017800
 20
27.477800
 40
0.000000
 41
0.000000
 42
0.000000
  0
VERTEX
  8
BG_SILKSCREEN_TOP
 10
92.045800
 20
27.437600
 40
0.000000
 41
0.000000
 42
0.000000
  0
VERTEX
  8
BG_SILKSCREEN_TOP
 10
92.064400
 20
27.393600
 40
0.000000
 41
0.000000
 42
0.000000
  0
VERTEX
  8
BG_SILKSCREEN_TOP
 10
92.075000
 20
27.346600
 40
0.000000
 41
0.000000
 42
0.000000
  0
VERTEX
  8
BG_SILKSCREEN_TOP
 10
92.077400
 20
27.299000
 40
0.000000
 41
0.000000
 42
0.000000
  0
VERTEX
  8
BG_SILKSCREEN_TOP
 10
92.077400
 20
27.204200
 40
0.000000
 41
0.000000
 42
0.000000
  0
VERTEX
  8
BG_SILKSCREEN_TOP
 10
92.584400
 20
27.204200
 40
0.000000
 41
0.000000
 42
0.000000
  0
VERTEX
  8
BG_SILKSCREEN_TOP
 10
92.584200
 20
27.229800
 40
0.000000
 41
0.000000
 42
0.000000
  0
VERTEX
  8
BG_SILKSCREEN_TOP
 10
92.584000
 20
27.255200
 40
0.000000
 41
0.000000
 42
0.000000
  0
VERTEX
  8
BG_SILKSCREEN_TOP
 10
92.584000
 20
27.280600
 40
0.000000
 41
0.000000
 42
0.000000
  0
VERTEX
  8
BG_SILKSCREEN_TOP
 10
92.583800
 20
27.306200
 40
0.000000
 41
0.000000
 42
0.000000
  0
VERTEX
  8
BG_SILKSCREEN_TOP
 10
92.583600
 20
27.331600
 40
0.000000
 41
0.000000
 42
0.000000
  0
VERTEX
  8
BG_SILKSCREEN_TOP
 10
92.582600
 20
27.357000
 40
0.000000
 41
0.000000
 42
0.000000
  0
VERTEX
  8
BG_SILKSCREEN_TOP
 10
92.580400
 20
27.382200
 40
0.000000
 41
0.000000
 42
0.000000
  0
VERTEX
  8
BG_SILKSCREEN_TOP
 10
92.577000
 20
27.407400
 40
0.000000
 41
0.000000
 42
0.000000
  0
VERTEX
  8
BG_SILKSCREEN_TOP
 10
92.572600
 20
27.432600
 40
0.000000
 41
0.000000
 42
0.000000
  0
VERTEX
  8
BG_SILKSCREEN_TOP
 10
92.567000
 20
27.457400
 40
0.000000
 41
0.000000
 42
0.000000
  0
VERTEX
  8
BG_SILKSCREEN_TOP
 10
92.560400
 20
27.481800
 40
0.000000
 41
0.000000
 42
0.000000
  0
VERTEX
  8
BG_SILKSCREEN_TOP
 10
92.552600
 20
27.505800
 40
0.000000
 41
0.000000
 42
0.000000
  0
VERTEX
  8
BG_SILKSCREEN_TOP
 10
92.543800
 20
27.529400
 40
0.000000
 41
0.000000
 42
0.000000
  0
VERTEX
  8
BG_SILKSCREEN_TOP
 10
92.534000
 20
27.552600
 40
0.000000
 41
0.000000
 42
0.000000
  0
VERTEX
  8
BG_SILKSCREEN_TOP
 10
92.523000
 20
27.575400
 40
0.000000
 41
0.000000
 42
0.000000
  0
VERTEX
  8
BG_SILKSCREEN_TOP
 10
92.511000
 20
27.597600
 40
0.000000
 41
0.000000
 42
0.000000
  0
VERTEX
  8
BG_SILKSCREEN_TOP
 10
92.498200
 20
27.619200
 40
0.000000
 41
0.000000
 42
0.000000
  0
VERTEX
  8
BG_SILKSCREEN_TOP
 10
92.484200
 20
27.640200
 40
0.000000
 41
0.000000
 42
0.000000
  0
VERTEX
  8
BG_SILKSCREEN_TOP
 10
92.469600
 20
27.660200
 40
0.000000
 41
0.000000
 42
0.000000
  0
VERTEX
  8
BG_SILKSCREEN_TOP
 10
92.453800
 20
27.679800
 40
0.000000
 41
0.000000
 42
0.000000
  0
VERTEX
  8
BG_SILKSCREEN_TOP
 10
92.437400
 20
27.698600
 40
0.000000
 41
0.000000
 42
0.000000
  0
VERTEX
  8
BG_SILKSCREEN_TOP
 10
92.420000
 20
27.716800
 40
0.000000
 41
0.000000
 42
0.000000
  0
VERTEX
  8
BG_SILKSCREEN_TOP
 10
92.401800
 20
27.734000
 40
0.000000
 41
0.000000
 42
0.000000
  0
VERTEX
  8
BG_SILKSCREEN_TOP
 10
92.382800
 20
27.750400
 40
0.000000
 41
0.000000
 42
0.000000
  0
VERTEX
  8
BG_SILKSCREEN_TOP
 10
92.363400
 20
27.765800
 40
0.000000
 41
0.000000
 42
0.000000
  0
VERTEX
  8
BG_SILKSCREEN_TOP
 10
92.343200
 20
27.780400
 40
0.000000
 41
0.000000
 42
0.000000
  0
VERTEX
  8
BG_SILKSCREEN_TOP
 10
92.322400
 20
27.794000
 40
0.000000
 41
0.000000
 42
0.000000
  0
VERTEX
  8
BG_SILKSCREEN_TOP
 10
92.301200
 20
27.806800
 40
0.000000
 41
0.000000
 42
0.000000
  0
VERTEX
  8
BG_SILKSCREEN_TOP
 10
92.279200
 20
27.818600
 40
0.000000
 41
0.000000
 42
0.000000
  0
VERTEX
  8
BG_SILKSCREEN_TOP
 10
92.256800
 20
27.829400
 40
0.000000
 41
0.000000
 42
0.000000
  0
VERTEX
  8
BG_SILKSCREEN_TOP
 10
92.234000
 20
27.839000
 40
0.000000
 41
0.000000
 42
0.000000
  0
VERTEX
  8
BG_SILKSCREEN_TOP
 10
92.211000
 20
27.847800
 40
0.000000
 41
0.000000
 42
0.000000
  0
VERTEX
  8
BG_SILKSCREEN_TOP
 10
92.187400
 20
27.855400
 40
0.000000
 41
0.000000
 42
0.000000
  0
VERTEX
  8
BG_SILKSCREEN_TOP
 10
92.163600
 20
27.862000
 40
0.000000
 41
0.000000
 42
0.000000
  0
VERTEX
  8
BG_SILKSCREEN_TOP
 10
92.139400
 20
27.867400
 40
0.000000
 41
0.000000
 42
0.000000
  0
VERTEX
  8
BG_SILKSCREEN_TOP
 10
92.115200
 20
27.871600
 40
0.000000
 41
0.000000
 42
0.000000
  0
VERTEX
  8
BG_SILKSCREEN_TOP
 10
92.090800
 20
27.875400
 40
0.000000
 41
0.000000
 42
0.000000
  0
VERTEX
  8
BG_SILKSCREEN_TOP
 10
92.066400
 20
27.878800
 40
0.000000
 41
0.000000
 42
0.000000
  0
VERTEX
  8
BG_SILKSCREEN_TOP
 10
92.042000
 20
27.882000
 40
0.000000
 41
0.000000
 42
0.000000
  0
VERTEX
  8
BG_SILKSCREEN_TOP
 10
92.017400
 20
27.884800
 40
0.000000
 41
0.000000
 42
0.000000
  0
VERTEX
  8
BG_SILKSCREEN_TOP
 10
91.993000
 20
27.887400
 40
0.000000
 41
0.000000
 42
0.000000
  0
VERTEX
  8
BG_SILKSCREEN_TOP
 10
91.968400
 20
27.889600
 40
0.000000
 41
0.000000
 42
0.000000
  0
VERTEX
  8
BG_SILKSCREEN_TOP
 10
91.943800
 20
27.891400
 40
0.000000
 41
0.000000
 42
0.000000
  0
VERTEX
  8
BG_SILKSCREEN_TOP
 10
91.919200
 20
27.893000
 40
0.000000
 41
0.000000
 42
0.000000
  0
VERTEX
  8
BG_SILKSCREEN_TOP
 10
91.894600
 20
27.894400
 40
0.000000
 41
0.000000
 42
0.000000
  0
VERTEX
  8
BG_SILKSCREEN_TOP
 10
91.870000
 20
27.895400
 40
0.000000
 41
0.000000
 42
0.000000
  0
VERTEX
  8
BG_SILKSCREEN_TOP
 10
91.845400
 20
27.896000
 40
0.000000
 41
0.000000
 42
0.000000
  0
VERTEX
  8
BG_SILKSCREEN_TOP
 10
91.820800
 20
27.896400
 40
0.000000
 41
0.000000
 42
0.000000
  0
VERTEX
  8
BG_SILKSCREEN_TOP
 10
91.796200
 20
27.896400
 40
0.000000
 41
0.000000
 42
0.000000
  0
VERTEX
  8
BG_SILKSCREEN_TOP
 10
91.771600
 20
27.896200
 40
0.000000
 41
0.000000
 42
0.000000
  0
SEQEND
  0
POLYLINE
  8
BG_SILKSCREEN_TOP
 66
1
 70
1
 40
0.000000
 41
0.000000
 39
0.000000
  0
VERTEX
  8
BG_SILKSCREEN_TOP
 10
87.880200
 20
27.003800
 40
0.000000
 41
0.000000
 42
0.000000
  0
VERTEX
  8
BG_SILKSCREEN_TOP
 10
87.879800
 20
26.849000
 40
0.000000
 41
0.000000
 42
0.000000
  0
VERTEX
  8
BG_SILKSCREEN_TOP
 10
87.879600
 20
26.771800
 40
0.000000
 41
0.000000
 42
0.000000
  0
VERTEX
  8
BG_SILKSCREEN_TOP
 10
87.879400
 20
26.694400
 40
0.000000
 41
0.000000
 42
0.000000
  0
VERTEX
  8
BG_SILKSCREEN_TOP
 10
87.879000
 20
26.617200
 40
0.000000
 41
0.000000
 42
0.000000
  0
VERTEX
  8
BG_SILKSCREEN_TOP
 10
87.878600
 20
26.539800
 40
0.000000
 41
0.000000
 42
0.000000
  0
VERTEX
  8
BG_SILKSCREEN_TOP
 10
87.876400
 20
26.462600
 40
0.000000
 41
0.000000
 42
0.000000
  0
VERTEX
  8
BG_SILKSCREEN_TOP
 10
87.872200
 20
26.385400
 40
0.000000
 41
0.000000
 42
0.000000
  0
VERTEX
  8
BG_SILKSCREEN_TOP
 10
87.862400
 20
26.308800
 40
0.000000
 41
0.000000
 42
0.000000
  0
VERTEX
  8
BG_SILKSCREEN_TOP
 10
87.839800
 20
26.235600
 40
0.000000
 41
0.000000
 42
0.000000
  0
VERTEX
  8
BG_SILKSCREEN_TOP
 10
87.792000
 20
26.177600
 40
0.000000
 41
0.000000
 42
0.000000
  0
VERTEX
  8
BG_SILKSCREEN_TOP
 10
87.726600
 20
26.142200
 40
0.000000
 41
0.000000
 42
0.000000
  0
VERTEX
  8
BG_SILKSCREEN_TOP
 10
87.653600
 20
26.133000
 40
0.000000
 41
0.000000
 42
0.000000
  0
VERTEX
  8
BG_SILKSCREEN_TOP
 10
87.583400
 20
26.150400
 40
0.000000
 41
0.000000
 42
0.000000
  0
VERTEX
  8
BG_SILKSCREEN_TOP
 10
87.525600
 20
26.192800
 40
0.000000
 41
0.000000
 42
0.000000
  0
VERTEX
  8
BG_SILKSCREEN_TOP
 10
87.494200
 20
26.254800
 40
0.000000
 41
0.000000
 42
0.000000
  0
VERTEX
  8
BG_SILKSCREEN_TOP
 10
87.482800
 20
26.323400
 40
0.000000
 41
0.000000
 42
0.000000
  0
VERTEX
  8
BG_SILKSCREEN_TOP
 10
87.476800
 20
26.392800
 40
0.000000
 41
0.000000
 42
0.000000
  0
VERTEX
  8
BG_SILKSCREEN_TOP
 10
87.473000
 20
26.462200
 40
0.000000
 41
0.000000
 42
0.000000
  0
VERTEX
  8
BG_SILKSCREEN_TOP
 10
87.470600
 20
26.531600
 40
0.000000
 41
0.000000
 42
0.000000
  0
VERTEX
  8
BG_SILKSCREEN_TOP
 10
87.469400
 20
26.601000
 40
0.000000
 41
0.000000
 42
0.000000
  0
VERTEX
  8
BG_SILKSCREEN_TOP
 10
87.468200
 20
26.670600
 40
0.000000
 41
0.000000
 42
0.000000
  0
VERTEX
  8
BG_SILKSCREEN_TOP
 10
87.467200
 20
26.740000
 40
0.000000
 41
0.000000
 42
0.000000
  0
VERTEX
  8
BG_SILKSCREEN_TOP
 10
87.466200
 20
26.809600
 40
0.000000
 41
0.000000
 42
0.000000
  0
VERTEX
  8
BG_SILKSCREEN_TOP
 10
87.465400
 20
26.879000
 40
0.000000
 41
0.000000
 42
0.000000
  0
VERTEX
  8
BG_SILKSCREEN_TOP
 10
87.464600
 20
26.948600
 40
0.000000
 41
0.000000
 42
0.000000
  0
VERTEX
  8
BG_SILKSCREEN_TOP
 10
87.463800
 20
27.018000
 40
0.000000
 41
0.000000
 42
0.000000
  0
VERTEX
  8
BG_SILKSCREEN_TOP
 10
87.463000
 20
27.087600
 40
0.000000
 41
0.000000
 42
0.000000
  0
VERTEX
  8
BG_SILKSCREEN_TOP
 10
87.462400
 20
27.157000
 40
0.000000
 41
0.000000
 42
0.000000
  0
VERTEX
  8
BG_SILKSCREEN_TOP
 10
87.461600
 20
27.226600
 40
0.000000
 41
0.000000
 42
0.000000
  0
VERTEX
  8
BG_SILKSCREEN_TOP
 10
87.461000
 20
27.296000
 40
0.000000
 41
0.000000
 42
0.000000
  0
VERTEX
  8
BG_SILKSCREEN_TOP
 10
87.460200
 20
27.365600
 40
0.000000
 41
0.000000
 42
0.000000
  0
VERTEX
  8
BG_SILKSCREEN_TOP
 10
87.459400
 20
27.435000
 40
0.000000
 41
0.000000
 42
0.000000
  0
VERTEX
  8
BG_SILKSCREEN_TOP
 10
87.458800
 20
27.504600
 40
0.000000
 41
0.000000
 42
0.000000
  0
VERTEX
  8
BG_SILKSCREEN_TOP
 10
87.458000
 20
27.574200
 40
0.000000
 41
0.000000
 42
0.000000
  0
VERTEX
  8
BG_SILKSCREEN_TOP
 10
87.457400
 20
27.643600
 40
0.000000
 41
0.000000
 42
0.000000
  0
VERTEX
  8
BG_SILKSCREEN_TOP
 10
87.456600
 20
27.713200
 40
0.000000
 41
0.000000
 42
0.000000
  0
VERTEX
  8
BG_SILKSCREEN_TOP
 10
87.456000
 20
27.782600
 40
0.000000
 41
0.000000
 42
0.000000
  0
VERTEX
  8
BG_SILKSCREEN_TOP
 10
87.455200
 20
27.852200
 40
0.000000
 41
0.000000
 42
0.000000
  0
VERTEX
  8
BG_SILKSCREEN_TOP
 10
86.978800
 20
27.852200
 40
0.000000
 41
0.000000
 42
0.000000
  0
VERTEX
  8
BG_SILKSCREEN_TOP
 10
86.978800
 20
26.909400
 40
0.000000
 41
0.000000
 42
0.000000
  0
VERTEX
  8
BG_SILKSCREEN_TOP
 10
86.979200
 20
26.804600
 40
0.000000
 41
0.000000
 42
0.000000
  0
VERTEX
  8
BG_SILKSCREEN_TOP
 10
86.979800
 20
26.699800
 40
0.000000
 41
0.000000
 42
0.000000
  0
VERTEX
  8
BG_SILKSCREEN_TOP
 10
86.980600
 20
26.595000
 40
0.000000
 41
0.000000
 42
0.000000
  0
VERTEX
  8
BG_SILKSCREEN_TOP
 10
86.981600
 20
26.490400
 40
0.000000
 41
0.000000
 42
0.000000
  0
VERTEX
  8
BG_SILKSCREEN_TOP
 10
86.983200
 20
26.385600
 40
0.000000
 41
0.000000
 42
0.000000
  0
VERTEX
  8
BG_SILKSCREEN_TOP
 10
86.989800
 20
26.281200
 40
0.000000
 41
0.000000
 42
0.000000
  0
VERTEX
  8
BG_SILKSCREEN_TOP
 10
87.002800
 20
26.177400
 40
0.000000
 41
0.000000
 42
0.000000
  0
VERTEX
  8
BG_SILKSCREEN_TOP
 10
87.032600
 20
26.077800
 40
0.000000
 41
0.000000
 42
0.000000
  0
VERTEX
  8
BG_SILKSCREEN_TOP
 10
87.085800
 20
25.989800
 40
0.000000
 41
0.000000
 42
0.000000
  0
VERTEX
  8
BG_SILKSCREEN_TOP
 10
87.159000
 20
25.918000
 40
0.000000
 41
0.000000
 42
0.000000
  0
VERTEX
  8
BG_SILKSCREEN_TOP
 10
87.244600
 20
25.862400
 40
0.000000
 41
0.000000
 42
0.000000
  0
VERTEX
  8
BG_SILKSCREEN_TOP
 10
87.338400
 20
25.823200
 40
0.000000
 41
0.000000
 42
0.000000
  0
VERTEX
  8
BG_SILKSCREEN_TOP
 10
87.437000
 20
25.799600
 40
0.000000
 41
0.000000
 42
0.000000
  0
VERTEX
  8
BG_SILKSCREEN_TOP
 10
87.537600
 20
25.788200
 40
0.000000
 41
0.000000
 42
0.000000
  0
VERTEX
  8
BG_SILKSCREEN_TOP
 10
87.638800
 20
25.783600
 40
0.000000
 41
0.000000
 42
0.000000
  0
VERTEX
  8
BG_SILKSCREEN_TOP
 10
87.739800
 20
25.784800
 40
0.000000
 41
0.000000
 42
0.000000
  0
VERTEX
  8
BG_SILKSCREEN_TOP
 10
87.840400
 20
25.794200
 40
0.000000
 41
0.000000
 42
0.000000
  0
VERTEX
  8
BG_SILKSCREEN_TOP
 10
87.939800
 20
25.811400
 40
0.000000
 41
0.000000
 42
0.000000
  0
VERTEX
  8
BG_SILKSCREEN_TOP
 10
88.035800
 20
25.840600
 40
0.000000
 41
0.000000
 42
0.000000
  0
VERTEX
  8
BG_SILKSCREEN_TOP
 10
88.126400
 20
25.884000
 40
0.000000
 41
0.000000
 42
0.000000
  0
VERTEX
  8
BG_SILKSCREEN_TOP
 10
88.207000
 20
25.941600
 40
0.000000
 41
0.000000
 42
0.000000
  0
VERTEX
  8
BG_SILKSCREEN_TOP
 10
88.274200
 20
26.014400
 40
0.000000
 41
0.000000
 42
0.000000
  0
VERTEX
  8
BG_SILKSCREEN_TOP
 10
88.323600
 20
26.098800
 40
0.000000
 41
0.000000
 42
0.000000
  0
VERTEX
  8
BG_SILKSCREEN_TOP
 10
88.352400
 20
26.192000
 40
0.000000
 41
0.000000
 42
0.000000
  0
VERTEX
  8
BG_SILKSCREEN_TOP
 10
88.360600
 20
26.288400
 40
0.000000
 41
0.000000
 42
0.000000
  0
VERTEX
  8
BG_SILKSCREEN_TOP
 10
88.363800
 20
26.385200
 40
0.000000
 41
0.000000
 42
0.000000
  0
VERTEX
  8
BG_SILKSCREEN_TOP
 10
88.366400
 20
26.482000
 40
0.000000
 41
0.000000
 42
0.000000
  0
VERTEX
  8
BG_SILKSCREEN_TOP
 10
88.368600
 20
26.578800
 40
0.000000
 41
0.000000
 42
0.000000
  0
VERTEX
  8
BG_SILKSCREEN_TOP
 10
88.370400
 20
26.675800
 40
0.000000
 41
0.000000
 42
0.000000
  0
VERTEX
  8
BG_SILKSCREEN_TOP
 10
88.371600
 20
26.772600
 40
0.000000
 41
0.000000
 42
0.000000
  0
VERTEX
  8
BG_SILKSCREEN_TOP
 10
88.372400
 20
26.869400
 40
0.000000
 41
0.000000
 42
0.000000
  0
VERTEX
  8
BG_SILKSCREEN_TOP
 10
88.373000
 20
26.966400
 40
0.000000
 41
0.000000
 42
0.000000
  0
VERTEX
  8
BG_SILKSCREEN_TOP
 10
88.373200
 20
27.063200
 40
0.000000
 41
0.000000
 42
0.000000
  0
VERTEX
  8
BG_SILKSCREEN_TOP
 10
88.373200
 20
27.838000
 40
0.000000
 41
0.000000
 42
0.000000
  0
VERTEX
  8
BG_SILKSCREEN_TOP
 10
88.363200
 20
27.838400
 40
0.000000
 41
0.000000
 42
0.000000
  0
VERTEX
  8
BG_SILKSCREEN_TOP
 10
88.353400
 20
27.838600
 40
0.000000
 41
0.000000
 42
0.000000
  0
VERTEX
  8
BG_SILKSCREEN_TOP
 10
88.343600
 20
27.839000
 40
0.000000
 41
0.000000
 42
0.000000
  0
VERTEX
  8
BG_SILKSCREEN_TOP
 10
88.333600
 20
27.839400
 40
0.000000
 41
0.000000
 42
0.000000
  0
VERTEX
  8
BG_SILKSCREEN_TOP
 10
88.323800
 20
27.839600
 40
0.000000
 41
0.000000
 42
0.000000
  0
VERTEX
  8
BG_SILKSCREEN_TOP
 10
88.314000
 20
27.840000
 40
0.000000
 41
0.000000
 42
0.000000
  0
VERTEX
  8
BG_SILKSCREEN_TOP
 10
88.304200
 20
27.840200
 40
0.000000
 41
0.000000
 42
0.000000
  0
VERTEX
  8
BG_SILKSCREEN_TOP
 10
88.294200
 20
27.840600
 40
0.000000
 41
0.000000
 42
0.000000
  0
VERTEX
  8
BG_SILKSCREEN_TOP
 10
88.284400
 20
27.841000
 40
0.000000
 41
0.000000
 42
0.000000
  0
VERTEX
  8
BG_SILKSCREEN_TOP
 10
88.274600
 20
27.841200
 40
0.000000
 41
0.000000
 42
0.000000
  0
VERTEX
  8
BG_SILKSCREEN_TOP
 10
88.264600
 20
27.841600
 40
0.000000
 41
0.000000
 42
0.000000
  0
VERTEX
  8
BG_SILKSCREEN_TOP
 10
88.254800
 20
27.841800
 40
0.000000
 41
0.000000
 42
0.000000
  0
VERTEX
  8
BG_SILKSCREEN_TOP
 10
88.235200
 20
27.842600
 40
0.000000
 41
0.000000
 42
0.000000
  0
VERTEX
  8
BG_SILKSCREEN_TOP
 10
88.225200
 20
27.842800
 40
0.000000
 41
0.000000
 42
0.000000
  0
VERTEX
  8
BG_SILKSCREEN_TOP
 10
88.205600
 20
27.843600
 40
0.000000
 41
0.000000
 42
0.000000
  0
VERTEX
  8
BG_SILKSCREEN_TOP
 10
88.195600
 20
27.843800
 40
0.000000
 41
0.000000
 42
0.000000
  0
VERTEX
  8
BG_SILKSCREEN_TOP
 10
88.185800
 20
27.844200
 40
0.000000
 41
0.000000
 42
0.000000
  0
VERTEX
  8
BG_SILKSCREEN_TOP
 10
88.176000
 20
27.844400
 40
0.000000
 41
0.000000
 42
0.000000
  0
VERTEX
  8
BG_SILKSCREEN_TOP
 10
88.166000
 20
27.844800
 40
0.000000
 41
0.000000
 42
0.000000
  0
VERTEX
  8
BG_SILKSCREEN_TOP
 10
88.156200
 20
27.845200
 40
0.000000
 41
0.000000
 42
0.000000
  0
VERTEX
  8
BG_SILKSCREEN_TOP
 10
88.146400
 20
27.845400
 40
0.000000
 41
0.000000
 42
0.000000
  0
VERTEX
  8
BG_SILKSCREEN_TOP
 10
88.136600
 20
27.845800
 40
0.000000
 41
0.000000
 42
0.000000
  0
VERTEX
  8
BG_SILKSCREEN_TOP
 10
88.126600
 20
27.846200
 40
0.000000
 41
0.000000
 42
0.000000
  0
VERTEX
  8
BG_SILKSCREEN_TOP
 10
88.116800
 20
27.846400
 40
0.000000
 41
0.000000
 42
0.000000
  0
VERTEX
  8
BG_SILKSCREEN_TOP
 10
88.107000
 20
27.846800
 40
0.000000
 41
0.000000
 42
0.000000
  0
VERTEX
  8
BG_SILKSCREEN_TOP
 10
88.097000
 20
27.847200
 40
0.000000
 41
0.000000
 42
0.000000
  0
VERTEX
  8
BG_SILKSCREEN_TOP
 10
88.087200
 20
27.847400
 40
0.000000
 41
0.000000
 42
0.000000
  0
VERTEX
  8
BG_SILKSCREEN_TOP
 10
88.077400
 20
27.847800
 40
0.000000
 41
0.000000
 42
0.000000
  0
VERTEX
  8
BG_SILKSCREEN_TOP
 10
88.067600
 20
27.848000
 40
0.000000
 41
0.000000
 42
0.000000
  0
VERTEX
  8
BG_SILKSCREEN_TOP
 10
88.057600
 20
27.848400
 40
0.000000
 41
0.000000
 42
0.000000
  0
VERTEX
  8
BG_SILKSCREEN_TOP
 10
88.047800
 20
27.848800
 40
0.000000
 41
0.000000
 42
0.000000
  0
VERTEX
  8
BG_SILKSCREEN_TOP
 10
88.038000
 20
27.849000
 40
0.000000
 41
0.000000
 42
0.000000
  0
VERTEX
  8
BG_SILKSCREEN_TOP
 10
88.028000
 20
27.849400
 40
0.000000
 41
0.000000
 42
0.000000
  0
VERTEX
  8
BG_SILKSCREEN_TOP
 10
88.018200
 20
27.849800
 40
0.000000
 41
0.000000
 42
0.000000
  0
VERTEX
  8
BG_SILKSCREEN_TOP
 10
88.008400
 20
27.850000
 40
0.000000
 41
0.000000
 42
0.000000
  0
VERTEX
  8
BG_SILKSCREEN_TOP
 10
87.998400
 20
27.850400
 40
0.000000
 41
0.000000
 42
0.000000
  0
VERTEX
  8
BG_SILKSCREEN_TOP
 10
87.988600
 20
27.850800
 40
0.000000
 41
0.000000
 42
0.000000
  0
VERTEX
  8
BG_SILKSCREEN_TOP
 10
87.978800
 20
27.851000
 40
0.000000
 41
0.000000
 42
0.000000
  0
VERTEX
  8
BG_SILKSCREEN_TOP
 10
87.969000
 20
27.851400
 40
0.000000
 41
0.000000
 42
0.000000
  0
VERTEX
  8
BG_SILKSCREEN_TOP
 10
87.959000
 20
27.851800
 40
0.000000
 41
0.000000
 42
0.000000
  0
VERTEX
  8
BG_SILKSCREEN_TOP
 10
87.949200
 20
27.852000
 40
0.000000
 41
0.000000
 42
0.000000
  0
VERTEX
  8
BG_SILKSCREEN_TOP
 10
87.939400
 20
27.852400
 40
0.000000
 41
0.000000
 42
0.000000
  0
VERTEX
  8
BG_SILKSCREEN_TOP
 10
87.929400
 20
27.852600
 40
0.000000
 41
0.000000
 42
0.000000
  0
VERTEX
  8
BG_SILKSCREEN_TOP
 10
87.909800
 20
27.853400
 40
0.000000
 41
0.000000
 42
0.000000
  0
VERTEX
  8
BG_SILKSCREEN_TOP
 10
87.899800
 20
27.853600
 40
0.000000
 41
0.000000
 42
0.000000
  0
VERTEX
  8
BG_SILKSCREEN_TOP
 10
87.880200
 20
27.854400
 40
0.000000
 41
0.000000
 42
0.000000
  0
SEQEND
  0
POLYLINE
  8
BG_SILKSCREEN_TOP
 66
1
 70
1
 40
0.000000
 41
0.000000
 39
0.000000
  0
VERTEX
  8
BG_SILKSCREEN_TOP
 10
90.136600
 20
27.535200
 40
0.000000
 41
0.000000
 42
0.000000
  0
VERTEX
  8
BG_SILKSCREEN_TOP
 10
90.146200
 20
27.154800
 40
0.000000
 41
0.000000
 42
0.000000
  0
VERTEX
  8
BG_SILKSCREEN_TOP
 10
90.147800
 20
27.091600
 40
0.000000
 41
0.000000
 42
0.000000
  0
VERTEX
  8
BG_SILKSCREEN_TOP
 10
90.149400
 20
27.028200
 40
0.000000
 41
0.000000
 42
0.000000
  0
VERTEX
  8
BG_SILKSCREEN_TOP
 10
90.152200
 20
26.901400
 40
0.000000
 41
0.000000
 42
0.000000
  0
VERTEX
  8
BG_SILKSCREEN_TOP
 10
90.154600
 20
26.774600
 40
0.000000
 41
0.000000
 42
0.000000
  0
VERTEX
  8
BG_SILKSCREEN_TOP
 10
90.155600
 20
26.711200
 40
0.000000
 41
0.000000
 42
0.000000
  0
VERTEX
  8
BG_SILKSCREEN_TOP
 10
90.156200
 20
26.647800
 40
0.000000
 41
0.000000
 42
0.000000
  0
VERTEX
  8
BG_SILKSCREEN_TOP
 10
90.156400
 20
26.584400
 40
0.000000
 41
0.000000
 42
0.000000
  0
VERTEX
  8
BG_SILKSCREEN_TOP
 10
90.156200
 20
26.521000
 40
0.000000
 41
0.000000
 42
0.000000
  0
VERTEX
  8
BG_SILKSCREEN_TOP
 10
90.154600
 20
26.394200
 40
0.000000
 41
0.000000
 42
0.000000
  0
VERTEX
  8
BG_SILKSCREEN_TOP
 10
90.153400
 20
26.330800
 40
0.000000
 41
0.000000
 42
0.000000
  0
VERTEX
  8
BG_SILKSCREEN_TOP
 10
90.123800
 20
26.351000
 40
0.000000
 41
0.000000
 42
0.000000
  0
VERTEX
  8
BG_SILKSCREEN_TOP
 10
90.085800
 20
26.470200
 40
0.000000
 41
0.000000
 42
0.000000
  0
VERTEX
  8
BG_SILKSCREEN_TOP
 10
90.067000
 20
26.530000
 40
0.000000
 41
0.000000
 42
0.000000
  0
VERTEX
  8
BG_SILKSCREEN_TOP
 10
90.048400
 20
26.589800
 40
0.000000
 41
0.000000
 42
0.000000
  0
VERTEX
  8
BG_SILKSCREEN_TOP
 10
90.030000
 20
26.649600
 40
0.000000
 41
0.000000
 42
0.000000
  0
VERTEX
  8
BG_SILKSCREEN_TOP
 10
90.011800
 20
26.709600
 40
0.000000
 41
0.000000
 42
0.000000
  0
VERTEX
  8
BG_SILKSCREEN_TOP
 10
89.994000
 20
26.769600
 40
0.000000
 41
0.000000
 42
0.000000
  0
VERTEX
  8
BG_SILKSCREEN_TOP
 10
89.976400
 20
26.829600
 40
0.000000
 41
0.000000
 42
0.000000
  0
VERTEX
  8
BG_SILKSCREEN_TOP
 10
89.958800
 20
26.889800
 40
0.000000
 41
0.000000
 42
0.000000
  0
VERTEX
  8
BG_SILKSCREEN_TOP
 10
89.941400
 20
26.949800
 40
0.000000
 41
0.000000
 42
0.000000
  0
VERTEX
  8
BG_SILKSCREEN_TOP
 10
89.924200
 20
27.010000
 40
0.000000
 41
0.000000
 42
0.000000
  0
VERTEX
  8
BG_SILKSCREEN_TOP
 10
89.906800
 20
27.070200
 40
0.000000
 41
0.000000
 42
0.000000
  0
VERTEX
  8
BG_SILKSCREEN_TOP
 10
89.872400
 20
27.190600
 40
0.000000
 41
0.000000
 42
0.000000
  0
VERTEX
  8
BG_SILKSCREEN_TOP
 10
89.855000
 20
27.250800
 40
0.000000
 41
0.000000
 42
0.000000
  0
VERTEX
  8
BG_SILKSCREEN_TOP
 10
89.837800
 20
27.311000
 40
0.000000
 41
0.000000
 42
0.000000
  0
VERTEX
  8
BG_SILKSCREEN_TOP
 10
89.820400
 20
27.371200
 40
0.000000
 41
0.000000
 42
0.000000
  0
VERTEX
  8
BG_SILKSCREEN_TOP
 10
89.803200
 20
27.431200
 40
0.000000
 41
0.000000
 42
0.000000
  0
VERTEX
  8
BG_SILKSCREEN_TOP
 10
89.751000
 20
27.611800
 40
0.000000
 41
0.000000
 42
0.000000
  0
VERTEX
  8
BG_SILKSCREEN_TOP
 10
89.733600
 20
27.671800
 40
0.000000
 41
0.000000
 42
0.000000
  0
VERTEX
  8
BG_SILKSCREEN_TOP
 10
89.716200
 20
27.732000
 40
0.000000
 41
0.000000
 42
0.000000
  0
VERTEX
  8
BG_SILKSCREEN_TOP
 10
89.698400
 20
27.792000
 40
0.000000
 41
0.000000
 42
0.000000
  0
VERTEX
  8
BG_SILKSCREEN_TOP
 10
89.680800
 20
27.852200
 40
0.000000
 41
0.000000
 42
0.000000
  0
VERTEX
  8
BG_SILKSCREEN_TOP
 10
88.950600
 20
27.852200
 40
0.000000
 41
0.000000
 42
0.000000
  0
VERTEX
  8
BG_SILKSCREEN_TOP
 10
88.950600
 20
25.852200
 40
0.000000
 41
0.000000
 42
0.000000
  0
VERTEX
  8
BG_SILKSCREEN_TOP
 10
89.435400
 20
25.852200
 40
0.000000
 41
0.000000
 42
0.000000
  0
VERTEX
  8
BG_SILKSCREEN_TOP
 10
89.433800
 20
25.918000
 40
0.000000
 41
0.000000
 42
0.000000
  0
VERTEX
  8
BG_SILKSCREEN_TOP
 10
89.432000
 20
25.983800
 40
0.000000
 41
0.000000
 42
0.000000
  0
VERTEX
  8
BG_SILKSCREEN_TOP
 10
89.430400
 20
26.049400
 40
0.000000
 41
0.000000
 42
0.000000
  0
VERTEX
  8
BG_SILKSCREEN_TOP
 10
89.424000
 20
26.312600
 40
0.000000
 41
0.000000
 42
0.000000
  0
VERTEX
  8
BG_SILKSCREEN_TOP
 10
89.422200
 20
26.378400
 40
0.000000
 41
0.000000
 42
0.000000
  0
VERTEX
  8
BG_SILKSCREEN_TOP
 10
89.412600
 20
26.773200
 40
0.000000
 41
0.000000
 42
0.000000
  0
VERTEX
  8
BG_SILKSCREEN_TOP
 10
89.411400
 20
26.838800
 40
0.000000
 41
0.000000
 42
0.000000
  0
VERTEX
  8
BG_SILKSCREEN_TOP
 10
89.410000
 20
26.904600
 40
0.000000
 41
0.000000
 42
0.000000
  0
VERTEX
  8
BG_SILKSCREEN_TOP
 10
89.408000
 20
27.036200
 40
0.000000
 41
0.000000
 42
0.000000
  0
VERTEX
  8
BG_SILKSCREEN_TOP
 10
89.407400
 20
27.102000
 40
0.000000
 41
0.000000
 42
0.000000
  0
VERTEX
  8
BG_SILKSCREEN_TOP
 10
89.407200
 20
27.167800
 40
0.000000
 41
0.000000
 42
0.000000
  0
VERTEX
  8
BG_SILKSCREEN_TOP
 10
89.407600
 20
27.233600
 40
0.000000
 41
0.000000
 42
0.000000
  0
VERTEX
  8
BG_SILKSCREEN_TOP
 10
89.408200
 20
27.299400
 40
0.000000
 41
0.000000
 42
0.000000
  0
VERTEX
  8
BG_SILKSCREEN_TOP
 10
89.409000
 20
27.365200
 40
0.000000
 41
0.000000
 42
0.000000
  0
VERTEX
  8
BG_SILKSCREEN_TOP
 10
89.410000
 20
27.431000
 40
0.000000
 41
0.000000
 42
0.000000
  0
VERTEX
  8
BG_SILKSCREEN_TOP
 10
89.440400
 20
27.406000
 40
0.000000
 41
0.000000
 42
0.000000
  0
VERTEX
  8
BG_SILKSCREEN_TOP
 10
89.460600
 20
27.344200
 40
0.000000
 41
0.000000
 42
0.000000
  0
VERTEX
  8
BG_SILKSCREEN_TOP
 10
89.480600
 20
27.282200
 40
0.000000
 41
0.000000
 42
0.000000
  0
VERTEX
  8
BG_SILKSCREEN_TOP
 10
89.520600
 20
27.158600
 40
0.000000
 41
0.000000
 42
0.000000
  0
VERTEX
  8
BG_SILKSCREEN_TOP
 10
89.540400
 20
27.096600
 40
0.000000
 41
0.000000
 42
0.000000
  0
VERTEX
  8
BG_SILKSCREEN_TOP
 10
89.560000
 20
27.034600
 40
0.000000
 41
0.000000
 42
0.000000
  0
VERTEX
  8
BG_SILKSCREEN_TOP
 10
89.579400
 20
26.972600
 40
0.000000
 41
0.000000
 42
0.000000
  0
VERTEX
  8
BG_SILKSCREEN_TOP
 10
89.598600
 20
26.910400
 40
0.000000
 41
0.000000
 42
0.000000
  0
VERTEX
  8
BG_SILKSCREEN_TOP
 10
89.655600
 20
26.723800
 40
0.000000
 41
0.000000
 42
0.000000
  0
VERTEX
  8
BG_SILKSCREEN_TOP
 10
89.674400
 20
26.661600
 40
0.000000
 41
0.000000
 42
0.000000
  0
VERTEX
  8
BG_SILKSCREEN_TOP
 10
89.693000
 20
26.599400
 40
0.000000
 41
0.000000
 42
0.000000
  0
VERTEX
  8
BG_SILKSCREEN_TOP
 10
89.711800
 20
26.537000
 40
0.000000
 41
0.000000
 42
0.000000
  0
VERTEX
  8
BG_SILKSCREEN_TOP
 10
89.730600
 20
26.474800
 40
0.000000
 41
0.000000
 42
0.000000
  0
VERTEX
  8
BG_SILKSCREEN_TOP
 10
89.749200
 20
26.412600
 40
0.000000
 41
0.000000
 42
0.000000
  0
VERTEX
  8
BG_SILKSCREEN_TOP
 10
89.768000
 20
26.350200
 40
0.000000
 41
0.000000
 42
0.000000
  0
VERTEX
  8
BG_SILKSCREEN_TOP
 10
89.786600
 20
26.288000
 40
0.000000
 41
0.000000
 42
0.000000
  0
VERTEX
  8
BG_SILKSCREEN_TOP
 10
89.805400
 20
26.225800
 40
0.000000
 41
0.000000
 42
0.000000
  0
VERTEX
  8
BG_SILKSCREEN_TOP
 10
89.824200
 20
26.163400
 40
0.000000
 41
0.000000
 42
0.000000
  0
VERTEX
  8
BG_SILKSCREEN_TOP
 10
89.842800
 20
26.101200
 40
0.000000
 41
0.000000
 42
0.000000
  0
VERTEX
  8
BG_SILKSCREEN_TOP
 10
89.861600
 20
26.039000
 40
0.000000
 41
0.000000
 42
0.000000
  0
VERTEX
  8
BG_SILKSCREEN_TOP
 10
89.880400
 20
25.976600
 40
0.000000
 41
0.000000
 42
0.000000
  0
VERTEX
  8
BG_SILKSCREEN_TOP
 10
89.899000
 20
25.914400
 40
0.000000
 41
0.000000
 42
0.000000
  0
VERTEX
  8
BG_SILKSCREEN_TOP
 10
89.917800
 20
25.852200
 40
0.000000
 41
0.000000
 42
0.000000
  0
VERTEX
  8
BG_SILKSCREEN_TOP
 10
90.612600
 20
25.852200
 40
0.000000
 41
0.000000
 42
0.000000
  0
VERTEX
  8
BG_SILKSCREEN_TOP
 10
90.612600
 20
27.852200
 40
0.000000
 41
0.000000
 42
0.000000
  0
VERTEX
  8
BG_SILKSCREEN_TOP
 10
90.128400
 20
27.852200
 40
0.000000
 41
0.000000
 42
0.000000
  0
VERTEX
  8
BG_SILKSCREEN_TOP
 10
90.134800
 20
27.598600
 40
0.000000
 41
0.000000
 42
0.000000
  0
SEQEND
  0
POLYLINE
  8
MA_NCLEGEND-1-2
 66
1
 70
1
 40
0.000000
 41
0.000000
 39
0.000000
  0
VERTEX
  8
MA_NCLEGEND-1-2
 10
0.000000
 20
-24.500000
 40
0.000000
 41
0.000000
 42
0.000000
  0
VERTEX
  8
MA_NCLEGEND-1-2
 10
0.000000
 20
-1.500000
 40
0.000000
 41
0.000000
 42
0.000000
  0
VERTEX
  8
MA_NCLEGEND-1-2
 10
42.200000
 20
-1.500000
 40
0.000000
 41
0.000000
 42
0.000000
  0
VERTEX
  8
MA_NCLEGEND-1-2
 10
42.200000
 20
-24.500000
 40
0.000000
 41
0.000000
 42
0.000000
  0
SEQEND
  0
TEXT
  8
BG_SILKSCREEN_TOP
 10
80.750000
 20
22.000000
 11
0.000000
 21
0.000000
 40
0.900000
 41
0.888889
 50
0.000000
  7
STANDARD
 71
0
 72
0
  1
Z19 12 LH502C
 73
0
  0
TEXT
  8
BG_SILKSCREEN_TOP
 10
80.750000
 20
19.250000
 11
0.000000
 21
0.000000
 40
1.000000
 41
0.900000
 50
0.000000
  7
STANDARD
 71
0
 72
0
  1
200429 rev.0
 73
0
  0
TEXT
  8
BG_SILKSCREEN_TOP
 10
65.250000
 20
29.250000
 11
0.000000
 21
0.000000
 40
1.000000
 41
1.200000
 50
0.000000
  7
STANDARD
 71
0
 72
0
  1
Tc
 73
0
  0
TEXT
  8
MA_NCLEGEND-1-2
 10
38.350000
 20
-22.625000
 11
38.850000
 21
-22.625000
 40
1.500000
 41
0.733333
 50
0.000000
  7
STANDARD
 71
0
 72
1
  1
7
 73
0
  0
TEXT
  8
MA_NCLEGEND-1-2
 10
29.450000
 20
-22.625000
 11
29.950000
 21
-22.625000
 40
1.500000
 41
0.733333
 50
0.000000
  7
STANDARD
 71
0
 72
1
  1
NON-PLATED
 73
0
  0
TEXT
  8
MA_NCLEGEND-1-2
 10
15.600000
 20
-22.625000
 11
16.100000
 21
-22.625000
 40
1.500000
 41
0.733333
 50
0.000000
  7
STANDARD
 71
0
 72
1
  1
3.5
 73
0
  0
TEXT
  8
MA_NCLEGEND-1-2
 10
38.350000
 20
-17.375000
 11
38.850000
 21
-17.375000
 40
1.500000
 41
0.733333
 50
0.000000
  7
STANDARD
 71
0
 72
1
  1
2
 73
0
  0
TEXT
  8
MA_NCLEGEND-1-2
 10
29.450000
 20
-17.375000
 11
29.950000
 21
-17.375000
 40
1.500000
 41
0.733333
 50
0.000000
  7
STANDARD
 71
0
 72
1
  1
NON-PLATED
 73
0
  0
TEXT
  8
MA_NCLEGEND-1-2
 10
15.600000
 20
-17.375000
 11
16.100000
 21
-17.375000
 40
1.500000
 41
0.733333
 50
0.000000
  7
STANDARD
 71
0
 72
1
  1
3.4
 73
0
  0
TEXT
  8
MA_NCLEGEND-1-2
 10
38.350000
 20
-13.250000
 11
38.850000
 21
-13.250000
 40
1.500000
 41
0.733333
 50
0.000000
  7
STANDARD
 71
0
 72
1
  1
QTY
 73
0
  0
TEXT
  8
MA_NCLEGEND-1-2
 10
29.450000
 20
-13.250000
 11
29.950000
 21
-13.250000
 40
1.500000
 41
0.733333
 50
0.000000
  7
STANDARD
 71
0
 72
1
  1
PLATED
 73
0
  0
TEXT
  8
MA_NCLEGEND-1-2
 10
15.600000
 20
-13.250000
 11
16.100000
 21
-13.250000
 40
1.500000
 41
0.733333
 50
0.000000
  7
STANDARD
 71
0
 72
1
  1
SIZE
 73
0
  0
TEXT
  8
MA_NCLEGEND-1-2
 10
3.400000
 20
-13.250000
 11
3.900000
 21
-13.250000
 40
1.500000
 41
0.733333
 50
0.000000
  7
STANDARD
 71
0
 72
1
  1
FIGURE
 73
0
  0
TEXT
  8
MA_NCLEGEND-1-2
 10
20.600000
 20
-10.250000
 11
21.100000
 21
-10.250000
 40
1.500000
 41
0.733333
 50
0.000000
  7
STANDARD
 71
0
 72
1
  1
ALL UNITS ARE IN MILLIMETERS
 73
0
  0
TEXT
  8
MA_NCLEGEND-1-2
 10
20.600000
 20
-3.750000
 11
21.100000
 21
-3.750000
 40
1.500000
 41
0.733333
 50
0.000000
  7
STANDARD
 71
0
 72
1
  1
DRILL CHART: TOP to BOTTOM
 73
0
  0
INSERT
  8
MA_NCLEGEND-1-2
  2
FIGURE_CIRCLE
 10
3.900000
 20
-21.875000
 41
3.500000
 42
3.500000
 50
0.000000
  0
TEXT
  8
MA_NCLEGEND-1-2
 10
2.733333
 20
-22.750000
 11
3.900000
 21
-21.875000
 40
1.750000
 41
1.000000
 50
0.000000
  7
STANDARD
 71
0
 72
1
  1
B
 73
2
  0
INSERT
  8
MA_NCLEGEND-1-2
  2
FIGURE_CIRCLE
 10
3.900000
 20
-16.625000
 41
3.400000
 42
3.400000
 50
0.000000
  0
TEXT
  8
MA_NCLEGEND-1-2
 10
2.766667
 20
-17.475000
 11
3.900000
 21
-16.625000
 40
1.700000
 41
1.000000
 50
0.000000
  7
STANDARD
 71
0
 72
1
  1
A
 73
2
  0
ENDSEC
  0
EOF
