  0
SECTION
  2
HEADER
  9
$ACADVER
  1
AC1009
  9
$INSBASE
 10
0.000000
 20
0.000000
  9
$LIMMIN
 10
-200.000000
 20
-100.000000
  9
$LIMMAX
 10
800.000000
 20
400.000000
  9
$EXTMIN
 10
-200.000000
 20
-100.000000
  9
$EXTMAX
 10
800.000000
 20
400.000000
  9
$ATTMODE
 70
0
  9
$LUNITS
 70
2
  9
$LUPREC
 70
4
  9
$THICKNESS
 40
0.283200
  0
ENDSEC
  0
SECTION
  2
TABLES
  0
TABLE
  2
LTYPE
 70
1
  0
LTYPE
  3
Solid Line
  2
CONTINUOUS
 70
0
 72
65
 73
0
 40
0.000000
  0
ENDTAB
  0
TABLE
  2
LAYER
 70
13
  0
LAYER
  2
BG_SOLDERMASK_TOP
 70
0
 62
3
  6
CONTINUOUS
  0
LAYER
  2
BG_SILKSCREEN_TOP
 70
0
 62
1
  6
CONTINUOUS
  0
LAYER
  2
BG_OUTLINE
 70
0
 62
7
  6
CONTINUOUS
  0
LAYER
  2
ET_TOP
 70
0
 62
140
  6
CONTINUOUS
  0
LAYER
  2
MA_NCLEGEND-1-2
 70
0
 62
9
  6
CONTINUOUS
  0
LAYER
  2
PG_PASTEMASK_TOP
 70
0
 62
150
  6
CONTINUOUS
  0
LAYER
  2
PG_SOLDERMASK_TOP
 70
0
 62
3
  6
CONTINUOUS
  0
LAYER
  2
PG_SILKSCREEN_TOP
 70
0
 62
1
  6
CONTINUOUS
  0
LAYER
  2
PIN_TOP
 70
0
 62
140
  6
CONTINUOUS
  0
LAYER
  2
PIN_SOLDERMASK_TOP
 70
0
 62
3
  6
CONTINUOUS
  0
LAYER
  2
RD_SILKSCREEN_TOP
 70
0
 62
1
  6
CONTINUOUS
  0
LAYER
  2
VC_TOP
 70
0
 62
140
  6
CONTINUOUS
  0
LAYER
  2
PLAN_TOP
 70
0
 62
70
  6
CONTINUOUS
  0
ENDTAB
  0
TABLE
  2
STYLE
 70
1
  0
STYLE
  2
STANDARD
 70
0
 40
0.000000
 41
1.000000
 50
0.000000
 71
0
 42
0.200000
  3
txt
  0
ENDTAB
  0
ENDSEC
  0
SECTION
  2
BLOCKS
  0
BLOCK
  8
0
  2
FIGURE_CIRCLE
 70
0
 10
0.000000
 20
0.000000
  0
CIRCLE
  8
0
 10
0.000000
 20
0.000000
 40
0.500000
  0
ENDBLK
  0
BLOCK
  8
0
  2
FIGURE_SQUARE
 70
0
 10
0.000000
 20
0.000000
  0
POLYLINE
  8
0
 66
1
 70
1
 40
0.000000
 41
0.000000
 39
0.000000
  0
VERTEX
  8
0
 10
-0.500000
 20
-0.500000
 40
0.000000
 41
0.000000
 42
0.000000
  0
VERTEX
  8
0
 10
-0.500000
 20
0.500000
 40
0.000000
 41
0.000000
 42
0.000000
  0
VERTEX
  8
0
 10
0.500000
 20
0.500000
 40
0.000000
 41
0.000000
 42
0.000000
  0
VERTEX
  8
0
 10
0.500000
 20
-0.500000
 40
0.000000
 41
0.000000
 42
0.000000
  0
SEQEND
  0
ENDBLK
  0
BLOCK
  8
0
  2
FIGURE_HEX
 70
0
 10
0.000000
 20
0.000000
  0
POLYLINE
  8
0
 66
1
 70
1
 40
0.000000
 41
0.000000
 39
0.000000
  0
VERTEX
  8
0
 10
-0.500000
 20
0.000000
 40
0.000000
 41
0.000000
 42
0.000000
  0
VERTEX
  8
0
 10
-0.250000
 20
0.500000
 40
0.000000
 41
0.000000
 42
0.000000
  0
VERTEX
  8
0
 10
0.250000
 20
0.500000
 40
0.000000
 41
0.000000
 42
0.000000
  0
VERTEX
  8
0
 10
0.500000
 20
0.000000
 40
0.000000
 41
0.000000
 42
0.000000
  0
VERTEX
  8
0
 10
0.250000
 20
-0.500000
 40
0.000000
 41
0.000000
 42
0.000000
  0
VERTEX
  8
0
 10
-0.250000
 20
-0.500000
 40
0.000000
 41
0.000000
 42
0.000000
  0
SEQEND
  0
ENDBLK
  0
BLOCK
  8
0
  2
FIGURE_OCT
 70
0
 10
0.000000
 20
0.000000
  0
POLYLINE
  8
0
 66
1
 70
1
 40
0.000000
 41
0.000000
 39
0.000000
  0
VERTEX
  8
0
 10
-0.500000
 20
-0.207100
 40
0.000000
 41
0.000000
 42
0.000000
  0
VERTEX
  8
0
 10
-0.500000
 20
0.207100
 40
0.000000
 41
0.000000
 42
0.000000
  0
VERTEX
  8
0
 10
-0.207100
 20
0.500000
 40
0.000000
 41
0.000000
 42
0.000000
  0
VERTEX
  8
0
 10
0.207100
 20
0.500000
 40
0.000000
 41
0.000000
 42
0.000000
  0
VERTEX
  8
0
 10
0.500000
 20
0.207100
 40
0.000000
 41
0.000000
 42
0.000000
  0
VERTEX
  8
0
 10
0.500000
 20
-0.207100
 40
0.000000
 41
0.000000
 42
0.000000
  0
VERTEX
  8
0
 10
0.207100
 20
-0.500000
 40
0.000000
 41
0.000000
 42
0.000000
  0
VERTEX
  8
0
 10
-0.207100
 20
-0.500000
 40
0.000000
 41
0.000000
 42
0.000000
  0
SEQEND
  0
ENDBLK
  0
BLOCK
  8
0
  2
FIGURE_OBLONG
 70
0
 10
0.000000
 20
0.000000
  0
POLYLINE
  8
0
 66
1
 70
1
 40
0.000000
 41
0.000000
 39
0.000000
  0
VERTEX
  8
0
 10
-0.500000
 20
-0.125000
 40
0.000000
 41
0.000000
 42
0.000000
  0
VERTEX
  8
0
 10
-0.500000
 20
0.125000
 40
0.000000
 41
0.000000
 42
0.000000
  0
VERTEX
  8
0
 10
-0.416000
 20
0.375000
 40
0.000000
 41
0.000000
 42
0.000000
  0
VERTEX
  8
0
 10
-0.250000
 20
0.500000
 40
0.000000
 41
0.000000
 42
0.000000
  0
VERTEX
  8
0
 10
0.250000
 20
0.500000
 40
0.000000
 41
0.000000
 42
0.000000
  0
VERTEX
  8
0
 10
0.416000
 20
0.375000
 40
0.000000
 41
0.000000
 42
0.000000
  0
VERTEX
  8
0
 10
0.500000
 20
0.125000
 40
0.000000
 41
0.000000
 42
0.000000
  0
VERTEX
  8
0
 10
0.500000
 20
-0.125000
 40
0.000000
 41
0.000000
 42
0.000000
  0
VERTEX
  8
0
 10
0.416000
 20
-0.375000
 40
0.000000
 41
0.000000
 42
0.000000
  0
VERTEX
  8
0
 10
0.250000
 20
-0.500000
 40
0.000000
 41
0.000000
 42
0.000000
  0
VERTEX
  8
0
 10
-0.250000
 20
-0.500000
 40
0.000000
 41
0.000000
 42
0.000000
  0
VERTEX
  8
0
 10
-0.416000
 20
-0.375000
 40
0.000000
 41
0.000000
 42
0.000000
  0
SEQEND
  0
ENDBLK
  0
BLOCK
  8
0
  2
FIGURE_TRI
 70
0
 10
0.000000
 20
0.000000
  0
POLYLINE
  8
0
 66
1
 70
1
 40
0.000000
 41
0.000000
 39
0.000000
  0
VERTEX
  8
0
 10
-0.500000
 20
-0.500000
 40
0.000000
 41
0.000000
 42
0.000000
  0
VERTEX
  8
0
 10
0.000000
 20
0.500000
 40
0.000000
 41
0.000000
 42
0.000000
  0
VERTEX
  8
0
 10
0.500000
 20
-0.500000
 40
0.000000
 41
0.000000
 42
0.000000
  0
SEQEND
  0
ENDBLK
  0
BLOCK
  8
0
  2
FIGURE_CROSS
 70
0
 10
0.000000
 20
0.000000
  0
POLYLINE
  8
0
 66
1
 70
0
 40
0.000000
 41
0.000000
 39
0.000000
  0
VERTEX
  8
0
 10
-0.500000
 20
0.000000
 40
0.000000
 41
0.000000
 42
0.000000
  0
VERTEX
  8
0
 10
0.500000
 20
0.000000
 40
0.000000
 41
0.000000
 42
0.000000
  0
SEQEND
  0
POLYLINE
  8
0
 66
1
 70
0
 40
0.000000
 41
0.000000
 39
0.000000
  0
VERTEX
  8
0
 10
0.000000
 20
0.500000
 40
0.000000
 41
0.000000
 42
0.000000
  0
VERTEX
  8
0
 10
0.000000
 20
-0.500000
 40
0.000000
 41
0.000000
 42
0.000000
  0
SEQEND
  0
ENDBLK
  0
BLOCK
  8
0
  2
FIGURE_DIAMOND
 70
0
 10
0.000000
 20
0.000000
  0
POLYLINE
  8
0
 66
1
 70
1
 40
0.000000
 41
0.000000
 39
0.000000
  0
VERTEX
  8
0
 10
-0.500000
 20
0.000000
 40
0.000000
 41
0.000000
 42
0.000000
  0
VERTEX
  8
0
 10
0.000000
 20
0.500000
 40
0.000000
 41
0.000000
 42
0.000000
  0
VERTEX
  8
0
 10
0.500000
 20
0.000000
 40
0.000000
 41
0.000000
 42
0.000000
  0
VERTEX
  8
0
 10
0.000000
 20
-0.500000
 40
0.000000
 41
0.000000
 42
0.000000
  0
SEQEND
  0
ENDBLK
  0
ENDSEC
  0
SECTION
  2
ENTITIES
  0
POLYLINE
  8
ET_TOP
 66
1
 70
1
 40
0.000000
 41
0.000000
 39
0.000000
  0
VERTEX
  8
ET_TOP
 10
48.804400
 20
47.499900
 40
0.000000
 41
0.000000
 42
0.000000
  0
VERTEX
  8
ET_TOP
 10
59.700000
 20
47.499900
 40
0.000000
 41
0.000000
 42
0.000000
  0
VERTEX
  8
ET_TOP
 10
59.700000
 20
9.515000
 40
0.000000
 41
0.000000
 42
0.000000
  0
VERTEX
  8
ET_TOP
 10
34.700200
 20
9.515000
 40
0.000000
 41
0.000000
 42
0.000000
  0
VERTEX
  8
ET_TOP
 10
34.700200
 20
47.499900
 40
0.000000
 41
0.000000
 42
0.000000
  0
VERTEX
  8
ET_TOP
 10
45.595600
 20
47.499900
 40
0.000000
 41
0.000000
 42
0.000000
  0
VERTEX
  8
ET_TOP
 10
45.604000
 20
47.384000
 40
0.000000
 41
0.000000
 42
0.929956
  0
VERTEX
  8
ET_TOP
 10
48.796000
 20
47.384000
 40
0.000000
 41
0.000000
 42
0.000000
  0
SEQEND
  0
POLYLINE
  8
ET_TOP
 66
1
 70
1
 40
0.000000
 41
0.000000
 39
0.000000
  0
VERTEX
  8
ET_TOP
 10
54.700400
 20
37.700000
 40
0.000000
 41
0.000000
 42
1.000000
  0
VERTEX
  8
ET_TOP
 10
53.699586
 20
37.700018
 40
0.000000
 41
0.000000
 42
1.000000
  0
SEQEND
  0
POLYLINE
  8
ET_TOP
 66
1
 70
1
 40
0.000000
 41
0.000000
 39
0.000000
  0
VERTEX
  8
ET_TOP
 10
54.700400
 20
12.300000
 40
0.000000
 41
0.000000
 42
1.000000
  0
VERTEX
  8
ET_TOP
 10
53.699586
 20
12.300018
 40
0.000000
 41
0.000000
 42
1.000000
  0
SEQEND
  0
POLYLINE
  8
ET_TOP
 66
1
 70
1
 40
0.000000
 41
0.000000
 39
0.000000
  0
VERTEX
  8
ET_TOP
 10
40.700400
 20
37.700000
 40
0.000000
 41
0.000000
 42
1.000000
  0
VERTEX
  8
ET_TOP
 10
39.699586
 20
37.700018
 40
0.000000
 41
0.000000
 42
1.000000
  0
SEQEND
  0
POLYLINE
  8
ET_TOP
 66
1
 70
1
 40
0.000000
 41
0.000000
 39
0.000000
  0
VERTEX
  8
ET_TOP
 10
52.200200
 20
25.000000
 40
0.000000
 41
0.000000
 42
1.000000
  0
VERTEX
  8
ET_TOP
 10
42.199800
 20
25.000000
 40
0.000000
 41
0.000000
 42
1.000000
  0
SEQEND
  0
POLYLINE
  8
ET_TOP
 66
1
 70
1
 40
0.000000
 41
0.000000
 39
0.000000
  0
VERTEX
  8
ET_TOP
 10
40.700400
 20
12.300000
 40
0.000000
 41
0.000000
 42
1.000000
  0
VERTEX
  8
ET_TOP
 10
39.699586
 20
12.300018
 40
0.000000
 41
0.000000
 42
1.000000
  0
SEQEND
  0
POLYLINE
  8
ET_TOP
 66
1
 70
1
 40
0.000000
 41
0.000000
 39
0.000000
  0
VERTEX
  8
ET_TOP
 10
85.100000
 20
9.515000
 40
0.000000
 41
0.000000
 42
0.000000
  0
VERTEX
  8
ET_TOP
 10
60.100200
 20
9.515000
 40
0.000000
 41
0.000000
 42
0.000000
  0
VERTEX
  8
ET_TOP
 10
60.100200
 20
47.499900
 40
0.000000
 41
0.000000
 42
0.000000
  0
VERTEX
  8
ET_TOP
 10
85.100000
 20
47.499900
 40
0.000000
 41
0.000000
 42
0.000000
  0
SEQEND
  0
POLYLINE
  8
ET_TOP
 66
1
 70
1
 40
0.000000
 41
0.000000
 39
0.000000
  0
VERTEX
  8
ET_TOP
 10
80.100400
 20
37.700000
 40
0.000000
 41
0.000000
 42
1.000000
  0
VERTEX
  8
ET_TOP
 10
79.099586
 20
37.700018
 40
0.000000
 41
0.000000
 42
1.000000
  0
SEQEND
  0
POLYLINE
  8
ET_TOP
 66
1
 70
1
 40
0.000000
 41
0.000000
 39
0.000000
  0
VERTEX
  8
ET_TOP
 10
80.100400
 20
12.300000
 40
0.000000
 41
0.000000
 42
1.000000
  0
VERTEX
  8
ET_TOP
 10
79.099586
 20
12.300018
 40
0.000000
 41
0.000000
 42
1.000000
  0
SEQEND
  0
POLYLINE
  8
ET_TOP
 66
1
 70
1
 40
0.000000
 41
0.000000
 39
0.000000
  0
VERTEX
  8
ET_TOP
 10
71.300200
 20
25.000000
 40
0.000000
 41
0.000000
 42
1.000000
  0
VERTEX
  8
ET_TOP
 10
68.099800
 20
25.000000
 40
0.000000
 41
0.000000
 42
1.000000
  0
SEQEND
  0
POLYLINE
  8
ET_TOP
 66
1
 70
1
 40
0.000000
 41
0.000000
 39
0.000000
  0
VERTEX
  8
ET_TOP
 10
77.100200
 20
25.000000
 40
0.000000
 41
0.000000
 42
1.000000
  0
VERTEX
  8
ET_TOP
 10
73.899800
 20
25.000000
 40
0.000000
 41
0.000000
 42
1.000000
  0
SEQEND
  0
POLYLINE
  8
ET_TOP
 66
1
 70
1
 40
0.000000
 41
0.000000
 39
0.000000
  0
VERTEX
  8
ET_TOP
 10
66.100400
 20
37.700000
 40
0.000000
 41
0.000000
 42
1.000000
  0
VERTEX
  8
ET_TOP
 10
65.099586
 20
37.700018
 40
0.000000
 41
0.000000
 42
1.000000
  0
SEQEND
  0
POLYLINE
  8
ET_TOP
 66
1
 70
1
 40
0.000000
 41
0.000000
 39
0.000000
  0
VERTEX
  8
ET_TOP
 10
66.100400
 20
12.300000
 40
0.000000
 41
0.000000
 42
1.000000
  0
VERTEX
  8
ET_TOP
 10
65.099586
 20
12.300018
 40
0.000000
 41
0.000000
 42
1.000000
  0
SEQEND
  0
POLYLINE
  8
ET_TOP
 66
1
 70
1
 40
0.000000
 41
0.000000
 39
0.000000
  0
VERTEX
  8
ET_TOP
 10
99.604400
 20
47.499900
 40
0.000000
 41
0.000000
 42
0.000000
  0
VERTEX
  8
ET_TOP
 10
110.500000
 20
47.499900
 40
0.000000
 41
0.000000
 42
0.000000
  0
VERTEX
  8
ET_TOP
 10
110.500000
 20
9.515000
 40
0.000000
 41
0.000000
 42
0.000000
  0
VERTEX
  8
ET_TOP
 10
85.500200
 20
9.515000
 40
0.000000
 41
0.000000
 42
0.000000
  0
VERTEX
  8
ET_TOP
 10
85.500200
 20
47.499900
 40
0.000000
 41
0.000000
 42
0.000000
  0
VERTEX
  8
ET_TOP
 10
96.395600
 20
47.499900
 40
0.000000
 41
0.000000
 42
0.000000
  0
VERTEX
  8
ET_TOP
 10
96.404000
 20
47.384000
 40
0.000000
 41
0.000000
 42
0.929956
  0
VERTEX
  8
ET_TOP
 10
99.596000
 20
47.384000
 40
0.000000
 41
0.000000
 42
0.000000
  0
SEQEND
  0
POLYLINE
  8
ET_TOP
 66
1
 70
1
 40
0.000000
 41
0.000000
 39
0.000000
  0
VERTEX
  8
ET_TOP
 10
105.500400
 20
37.700000
 40
0.000000
 41
0.000000
 42
1.000000
  0
VERTEX
  8
ET_TOP
 10
104.499586
 20
37.700018
 40
0.000000
 41
0.000000
 42
1.000000
  0
SEQEND
  0
POLYLINE
  8
ET_TOP
 66
1
 70
1
 40
0.000000
 41
0.000000
 39
0.000000
  0
VERTEX
  8
ET_TOP
 10
105.500400
 20
12.300000
 40
0.000000
 41
0.000000
 42
1.000000
  0
VERTEX
  8
ET_TOP
 10
104.499586
 20
12.300018
 40
0.000000
 41
0.000000
 42
1.000000
  0
SEQEND
  0
POLYLINE
  8
ET_TOP
 66
1
 70
1
 40
0.000000
 41
0.000000
 39
0.000000
  0
VERTEX
  8
ET_TOP
 10
91.500400
 20
37.700000
 40
0.000000
 41
0.000000
 42
1.000000
  0
VERTEX
  8
ET_TOP
 10
90.499586
 20
37.700018
 40
0.000000
 41
0.000000
 42
1.000000
  0
SEQEND
  0
POLYLINE
  8
ET_TOP
 66
1
 70
1
 40
0.000000
 41
0.000000
 39
0.000000
  0
VERTEX
  8
ET_TOP
 10
103.000200
 20
25.000000
 40
0.000000
 41
0.000000
 42
1.000000
  0
VERTEX
  8
ET_TOP
 10
92.999800
 20
25.000000
 40
0.000000
 41
0.000000
 42
1.000000
  0
SEQEND
  0
POLYLINE
  8
ET_TOP
 66
1
 70
1
 40
0.000000
 41
0.000000
 39
0.000000
  0
VERTEX
  8
ET_TOP
 10
91.500400
 20
12.300000
 40
0.000000
 41
0.000000
 42
1.000000
  0
VERTEX
  8
ET_TOP
 10
90.499586
 20
12.300018
 40
0.000000
 41
0.000000
 42
1.000000
  0
SEQEND
  0
POLYLINE
  8
ET_TOP
 66
1
 70
1
 40
0.000000
 41
0.000000
 39
0.000000
  0
VERTEX
  8
ET_TOP
 10
135.900000
 20
9.515000
 40
0.000000
 41
0.000000
 42
0.000000
  0
VERTEX
  8
ET_TOP
 10
110.900200
 20
9.515000
 40
0.000000
 41
0.000000
 42
0.000000
  0
VERTEX
  8
ET_TOP
 10
110.900200
 20
47.499900
 40
0.000000
 41
0.000000
 42
0.000000
  0
VERTEX
  8
ET_TOP
 10
135.900000
 20
47.499900
 40
0.000000
 41
0.000000
 42
0.000000
  0
SEQEND
  0
POLYLINE
  8
ET_TOP
 66
1
 70
1
 40
0.000000
 41
0.000000
 39
0.000000
  0
VERTEX
  8
ET_TOP
 10
130.900400
 20
37.700000
 40
0.000000
 41
0.000000
 42
1.000000
  0
VERTEX
  8
ET_TOP
 10
129.899586
 20
37.700018
 40
0.000000
 41
0.000000
 42
1.000000
  0
SEQEND
  0
POLYLINE
  8
ET_TOP
 66
1
 70
1
 40
0.000000
 41
0.000000
 39
0.000000
  0
VERTEX
  8
ET_TOP
 10
130.900400
 20
12.300000
 40
0.000000
 41
0.000000
 42
1.000000
  0
VERTEX
  8
ET_TOP
 10
129.899586
 20
12.300018
 40
0.000000
 41
0.000000
 42
1.000000
  0
SEQEND
  0
POLYLINE
  8
ET_TOP
 66
1
 70
1
 40
0.000000
 41
0.000000
 39
0.000000
  0
VERTEX
  8
ET_TOP
 10
127.900200
 20
25.000000
 40
0.000000
 41
0.000000
 42
1.000000
  0
VERTEX
  8
ET_TOP
 10
124.699800
 20
25.000000
 40
0.000000
 41
0.000000
 42
1.000000
  0
SEQEND
  0
POLYLINE
  8
ET_TOP
 66
1
 70
1
 40
0.000000
 41
0.000000
 39
0.000000
  0
VERTEX
  8
ET_TOP
 10
116.900400
 20
37.700000
 40
0.000000
 41
0.000000
 42
1.000000
  0
VERTEX
  8
ET_TOP
 10
115.899586
 20
37.700018
 40
0.000000
 41
0.000000
 42
1.000000
  0
SEQEND
  0
POLYLINE
  8
ET_TOP
 66
1
 70
1
 40
0.000000
 41
0.000000
 39
0.000000
  0
VERTEX
  8
ET_TOP
 10
122.100200
 20
25.000000
 40
0.000000
 41
0.000000
 42
1.000000
  0
VERTEX
  8
ET_TOP
 10
118.899800
 20
25.000000
 40
0.000000
 41
0.000000
 42
1.000000
  0
SEQEND
  0
POLYLINE
  8
ET_TOP
 66
1
 70
1
 40
0.000000
 41
0.000000
 39
0.000000
  0
VERTEX
  8
ET_TOP
 10
116.900400
 20
12.300000
 40
0.000000
 41
0.000000
 42
1.000000
  0
VERTEX
  8
ET_TOP
 10
115.899586
 20
12.300018
 40
0.000000
 41
0.000000
 42
1.000000
  0
SEQEND
  0
POLYLINE
  8
ET_TOP
 66
1
 70
1
 40
0.000000
 41
0.000000
 39
0.000000
  0
VERTEX
  8
ET_TOP
 10
150.404400
 20
47.499900
 40
0.000000
 41
0.000000
 42
0.000000
  0
VERTEX
  8
ET_TOP
 10
161.300000
 20
47.499900
 40
0.000000
 41
0.000000
 42
0.000000
  0
VERTEX
  8
ET_TOP
 10
161.300000
 20
9.515000
 40
0.000000
 41
0.000000
 42
0.000000
  0
VERTEX
  8
ET_TOP
 10
136.300200
 20
9.515000
 40
0.000000
 41
0.000000
 42
0.000000
  0
VERTEX
  8
ET_TOP
 10
136.300200
 20
47.499900
 40
0.000000
 41
0.000000
 42
0.000000
  0
VERTEX
  8
ET_TOP
 10
147.195600
 20
47.499900
 40
0.000000
 41
0.000000
 42
0.000000
  0
VERTEX
  8
ET_TOP
 10
147.204000
 20
47.384000
 40
0.000000
 41
0.000000
 42
0.929956
  0
VERTEX
  8
ET_TOP
 10
150.396000
 20
47.384000
 40
0.000000
 41
0.000000
 42
0.000000
  0
SEQEND
  0
POLYLINE
  8
ET_TOP
 66
1
 70
1
 40
0.000000
 41
0.000000
 39
0.000000
  0
VERTEX
  8
ET_TOP
 10
156.300400
 20
37.700000
 40
0.000000
 41
0.000000
 42
1.000000
  0
VERTEX
  8
ET_TOP
 10
155.299586
 20
37.700018
 40
0.000000
 41
0.000000
 42
1.000000
  0
SEQEND
  0
POLYLINE
  8
ET_TOP
 66
1
 70
1
 40
0.000000
 41
0.000000
 39
0.000000
  0
VERTEX
  8
ET_TOP
 10
156.300400
 20
12.300000
 40
0.000000
 41
0.000000
 42
1.000000
  0
VERTEX
  8
ET_TOP
 10
155.299586
 20
12.300018
 40
0.000000
 41
0.000000
 42
1.000000
  0
SEQEND
  0
POLYLINE
  8
ET_TOP
 66
1
 70
1
 40
0.000000
 41
0.000000
 39
0.000000
  0
VERTEX
  8
ET_TOP
 10
153.800200
 20
25.000000
 40
0.000000
 41
0.000000
 42
1.000000
  0
VERTEX
  8
ET_TOP
 10
143.799800
 20
25.000000
 40
0.000000
 41
0.000000
 42
1.000000
  0
SEQEND
  0
POLYLINE
  8
ET_TOP
 66
1
 70
1
 40
0.000000
 41
0.000000
 39
0.000000
  0
VERTEX
  8
ET_TOP
 10
142.300400
 20
37.700000
 40
0.000000
 41
0.000000
 42
1.000000
  0
VERTEX
  8
ET_TOP
 10
141.299586
 20
37.700018
 40
0.000000
 41
0.000000
 42
1.000000
  0
SEQEND
  0
POLYLINE
  8
ET_TOP
 66
1
 70
1
 40
0.000000
 41
0.000000
 39
0.000000
  0
VERTEX
  8
ET_TOP
 10
142.300400
 20
12.300000
 40
0.000000
 41
0.000000
 42
1.000000
  0
VERTEX
  8
ET_TOP
 10
141.299586
 20
12.300018
 40
0.000000
 41
0.000000
 42
1.000000
  0
SEQEND
  0
POLYLINE
  8
ET_TOP
 66
1
 70
1
 40
0.000000
 41
0.000000
 39
0.000000
  0
VERTEX
  8
ET_TOP
 10
201.204400
 20
47.499900
 40
0.000000
 41
0.000000
 42
0.000000
  0
VERTEX
  8
ET_TOP
 10
212.100000
 20
47.499900
 40
0.000000
 41
0.000000
 42
0.000000
  0
VERTEX
  8
ET_TOP
 10
212.100000
 20
9.515000
 40
0.000000
 41
0.000000
 42
0.000000
  0
VERTEX
  8
ET_TOP
 10
187.100200
 20
9.515000
 40
0.000000
 41
0.000000
 42
0.000000
  0
VERTEX
  8
ET_TOP
 10
187.100200
 20
47.499900
 40
0.000000
 41
0.000000
 42
0.000000
  0
VERTEX
  8
ET_TOP
 10
197.995600
 20
47.499900
 40
0.000000
 41
0.000000
 42
0.000000
  0
VERTEX
  8
ET_TOP
 10
198.004000
 20
47.384000
 40
0.000000
 41
0.000000
 42
0.929956
  0
VERTEX
  8
ET_TOP
 10
201.196000
 20
47.384000
 40
0.000000
 41
0.000000
 42
0.000000
  0
SEQEND
  0
POLYLINE
  8
ET_TOP
 66
1
 70
1
 40
0.000000
 41
0.000000
 39
0.000000
  0
VERTEX
  8
ET_TOP
 10
207.100400
 20
37.700000
 40
0.000000
 41
0.000000
 42
1.000000
  0
VERTEX
  8
ET_TOP
 10
206.099586
 20
37.700018
 40
0.000000
 41
0.000000
 42
1.000000
  0
SEQEND
  0
POLYLINE
  8
ET_TOP
 66
1
 70
1
 40
0.000000
 41
0.000000
 39
0.000000
  0
VERTEX
  8
ET_TOP
 10
207.100400
 20
12.300000
 40
0.000000
 41
0.000000
 42
1.000000
  0
VERTEX
  8
ET_TOP
 10
206.099586
 20
12.300018
 40
0.000000
 41
0.000000
 42
1.000000
  0
SEQEND
  0
POLYLINE
  8
ET_TOP
 66
1
 70
1
 40
0.000000
 41
0.000000
 39
0.000000
  0
VERTEX
  8
ET_TOP
 10
193.100400
 20
37.700000
 40
0.000000
 41
0.000000
 42
1.000000
  0
VERTEX
  8
ET_TOP
 10
192.099586
 20
37.700018
 40
0.000000
 41
0.000000
 42
1.000000
  0
SEQEND
  0
POLYLINE
  8
ET_TOP
 66
1
 70
1
 40
0.000000
 41
0.000000
 39
0.000000
  0
VERTEX
  8
ET_TOP
 10
204.600200
 20
25.000000
 40
0.000000
 41
0.000000
 42
1.000000
  0
VERTEX
  8
ET_TOP
 10
194.599800
 20
25.000000
 40
0.000000
 41
0.000000
 42
1.000000
  0
SEQEND
  0
POLYLINE
  8
ET_TOP
 66
1
 70
1
 40
0.000000
 41
0.000000
 39
0.000000
  0
VERTEX
  8
ET_TOP
 10
193.100400
 20
12.300000
 40
0.000000
 41
0.000000
 42
1.000000
  0
VERTEX
  8
ET_TOP
 10
192.099586
 20
12.300018
 40
0.000000
 41
0.000000
 42
1.000000
  0
SEQEND
  0
POLYLINE
  8
ET_TOP
 66
1
 70
1
 40
0.000000
 41
0.000000
 39
0.000000
  0
VERTEX
  8
ET_TOP
 10
186.700000
 20
9.515000
 40
0.000000
 41
0.000000
 42
0.000000
  0
VERTEX
  8
ET_TOP
 10
161.700200
 20
9.515000
 40
0.000000
 41
0.000000
 42
0.000000
  0
VERTEX
  8
ET_TOP
 10
161.700200
 20
47.499900
 40
0.000000
 41
0.000000
 42
0.000000
  0
VERTEX
  8
ET_TOP
 10
186.700000
 20
47.499900
 40
0.000000
 41
0.000000
 42
0.000000
  0
SEQEND
  0
POLYLINE
  8
ET_TOP
 66
1
 70
1
 40
0.000000
 41
0.000000
 39
0.000000
  0
VERTEX
  8
ET_TOP
 10
181.700400
 20
37.700000
 40
0.000000
 41
0.000000
 42
1.000000
  0
VERTEX
  8
ET_TOP
 10
180.699586
 20
37.700018
 40
0.000000
 41
0.000000
 42
1.000000
  0
SEQEND
  0
POLYLINE
  8
ET_TOP
 66
1
 70
1
 40
0.000000
 41
0.000000
 39
0.000000
  0
VERTEX
  8
ET_TOP
 10
178.700200
 20
25.000000
 40
0.000000
 41
0.000000
 42
1.000000
  0
VERTEX
  8
ET_TOP
 10
175.499800
 20
25.000000
 40
0.000000
 41
0.000000
 42
1.000000
  0
SEQEND
  0
POLYLINE
  8
ET_TOP
 66
1
 70
1
 40
0.000000
 41
0.000000
 39
0.000000
  0
VERTEX
  8
ET_TOP
 10
181.700400
 20
12.300000
 40
0.000000
 41
0.000000
 42
1.000000
  0
VERTEX
  8
ET_TOP
 10
180.699586
 20
12.300018
 40
0.000000
 41
0.000000
 42
1.000000
  0
SEQEND
  0
POLYLINE
  8
ET_TOP
 66
1
 70
1
 40
0.000000
 41
0.000000
 39
0.000000
  0
VERTEX
  8
ET_TOP
 10
167.700400
 20
37.700000
 40
0.000000
 41
0.000000
 42
1.000000
  0
VERTEX
  8
ET_TOP
 10
166.699586
 20
37.700018
 40
0.000000
 41
0.000000
 42
1.000000
  0
SEQEND
  0
POLYLINE
  8
ET_TOP
 66
1
 70
1
 40
0.000000
 41
0.000000
 39
0.000000
  0
VERTEX
  8
ET_TOP
 10
172.900200
 20
25.000000
 40
0.000000
 41
0.000000
 42
1.000000
  0
VERTEX
  8
ET_TOP
 10
169.699800
 20
25.000000
 40
0.000000
 41
0.000000
 42
1.000000
  0
SEQEND
  0
POLYLINE
  8
ET_TOP
 66
1
 70
1
 40
0.000000
 41
0.000000
 39
0.000000
  0
VERTEX
  8
ET_TOP
 10
167.700400
 20
12.300000
 40
0.000000
 41
0.000000
 42
1.000000
  0
VERTEX
  8
ET_TOP
 10
166.699586
 20
12.300018
 40
0.000000
 41
0.000000
 42
1.000000
  0
SEQEND
  0
POLYLINE
  8
ET_TOP
 66
1
 70
1
 40
0.000000
 41
0.000000
 39
0.000000
  0
VERTEX
  8
ET_TOP
 10
222.499900
 20
26.844100
 40
0.000000
 41
0.000000
 42
-0.438230
  0
VERTEX
  8
ET_TOP
 10
222.229600
 20
26.594900
 40
0.000000
 41
0.000000
 42
1.084555
  0
VERTEX
  8
ET_TOP
 10
222.229600
 20
23.405100
 40
0.000000
 41
0.000000
 42
-0.438230
  0
VERTEX
  8
ET_TOP
 10
222.499900
 20
23.155900
 40
0.000000
 41
0.000000
 42
0.000000
  0
VERTEX
  8
ET_TOP
 10
222.499900
 20
2.500100
 40
0.000000
 41
0.000000
 42
0.000000
  0
VERTEX
  8
ET_TOP
 10
201.204400
 20
2.500100
 40
0.000000
 41
0.000000
 42
0.000000
  0
VERTEX
  8
ET_TOP
 10
201.196000
 20
2.616000
 40
0.000000
 41
0.000000
 42
0.929956
  0
VERTEX
  8
ET_TOP
 10
198.004000
 20
2.616000
 40
0.000000
 41
0.000000
 42
0.000000
  0
VERTEX
  8
ET_TOP
 10
197.995600
 20
2.500100
 40
0.000000
 41
0.000000
 42
0.000000
  0
VERTEX
  8
ET_TOP
 10
150.404400
 20
2.500100
 40
0.000000
 41
0.000000
 42
0.000000
  0
VERTEX
  8
ET_TOP
 10
150.396000
 20
2.616000
 40
0.000000
 41
0.000000
 42
0.929956
  0
VERTEX
  8
ET_TOP
 10
147.204000
 20
2.616000
 40
0.000000
 41
0.000000
 42
0.000000
  0
VERTEX
  8
ET_TOP
 10
147.195600
 20
2.500100
 40
0.000000
 41
0.000000
 42
0.000000
  0
VERTEX
  8
ET_TOP
 10
114.100200
 20
2.500100
 40
0.000000
 41
0.000000
 42
0.000000
  0
VERTEX
  8
ET_TOP
 10
114.100200
 20
5.500200
 40
0.000000
 41
0.000000
 42
0.000000
  0
VERTEX
  8
ET_TOP
 10
110.899800
 20
5.500200
 40
0.000000
 41
0.000000
 42
0.000000
  0
VERTEX
  8
ET_TOP
 10
110.899800
 20
2.500100
 40
0.000000
 41
0.000000
 42
0.000000
  0
VERTEX
  8
ET_TOP
 10
99.604400
 20
2.500100
 40
0.000000
 41
0.000000
 42
0.000000
  0
VERTEX
  8
ET_TOP
 10
99.596000
 20
2.616000
 40
0.000000
 41
0.000000
 42
0.929956
  0
VERTEX
  8
ET_TOP
 10
96.404000
 20
2.616000
 40
0.000000
 41
0.000000
 42
0.000000
  0
VERTEX
  8
ET_TOP
 10
96.395600
 20
2.500100
 40
0.000000
 41
0.000000
 42
0.000000
  0
VERTEX
  8
ET_TOP
 10
48.804400
 20
2.500100
 40
0.000000
 41
0.000000
 42
0.000000
  0
VERTEX
  8
ET_TOP
 10
48.796000
 20
2.616000
 40
0.000000
 41
0.000000
 42
0.929956
  0
VERTEX
  8
ET_TOP
 10
45.604000
 20
2.616000
 40
0.000000
 41
0.000000
 42
0.000000
  0
VERTEX
  8
ET_TOP
 10
45.595600
 20
2.500100
 40
0.000000
 41
0.000000
 42
0.000000
  0
VERTEX
  8
ET_TOP
 10
5.600200
 20
2.500100
 40
0.000000
 41
0.000000
 42
0.000000
  0
VERTEX
  8
ET_TOP
 10
5.600200
 20
5.600200
 40
0.000000
 41
0.000000
 42
0.000000
  0
VERTEX
  8
ET_TOP
 10
2.500100
 20
5.600200
 40
0.000000
 41
0.000000
 42
0.000000
  0
VERTEX
  8
ET_TOP
 10
2.500100
 20
36.500000
 40
0.000000
 41
0.000000
 42
0.000000
  0
VERTEX
  8
ET_TOP
 10
27.000000
 20
36.500000
 40
0.000000
 41
0.000000
 42
0.000000
  0
VERTEX
  8
ET_TOP
 10
27.000000
 20
26.750000
 40
0.000000
 41
0.000000
 42
0.000000
  0
VERTEX
  8
ET_TOP
 10
12.550000
 20
26.750000
 40
0.000000
 41
0.000000
 42
0.000000
  0
VERTEX
  8
ET_TOP
 10
12.550000
 20
9.000000
 40
0.000000
 41
0.000000
 42
0.000000
  0
VERTEX
  8
ET_TOP
 10
212.500000
 20
9.000000
 40
0.000000
 41
0.000000
 42
0.000000
  0
VERTEX
  8
ET_TOP
 10
212.500000
 20
9.114800
 40
0.000000
 41
0.000000
 42
0.000000
  0
VERTEX
  8
ET_TOP
 10
212.500200
 20
9.114800
 40
0.000000
 41
0.000000
 42
0.000000
  0
VERTEX
  8
ET_TOP
 10
212.500200
 20
47.499900
 40
0.000000
 41
0.000000
 42
0.000000
  0
VERTEX
  8
ET_TOP
 10
219.399800
 20
47.499900
 40
0.000000
 41
0.000000
 42
0.000000
  0
VERTEX
  8
ET_TOP
 10
219.399800
 20
44.399800
 40
0.000000
 41
0.000000
 42
0.000000
  0
VERTEX
  8
ET_TOP
 10
222.499900
 20
44.399800
 40
0.000000
 41
0.000000
 42
0.000000
  0
SEQEND
  0
POLYLINE
  8
ET_TOP
 66
1
 70
1
 40
0.000000
 41
0.000000
 39
0.000000
  0
VERTEX
  8
ET_TOP
 10
19.500400
 20
32.000000
 40
0.000000
 41
0.000000
 42
1.000000
  0
VERTEX
  8
ET_TOP
 10
18.799600
 20
32.000000
 40
0.000000
 41
0.000000
 42
1.000000
  0
SEQEND
  0
POLYLINE
  8
ET_TOP
 66
1
 70
1
 40
0.000000
 41
0.000000
 39
0.000000
  0
VERTEX
  8
ET_TOP
 10
218.500300
 20
12.300000
 40
0.000000
 41
0.000000
 42
1.000000
  0
VERTEX
  8
ET_TOP
 10
217.499686
 20
12.300018
 40
0.000000
 41
0.000000
 42
1.000000
  0
SEQEND
  0
POLYLINE
  8
ET_TOP
 66
1
 70
1
 40
0.000000
 41
0.000000
 39
0.000000
  0
VERTEX
  8
ET_TOP
 10
218.500300
 20
37.700000
 40
0.000000
 41
0.000000
 42
1.000000
  0
VERTEX
  8
ET_TOP
 10
217.499686
 20
37.700018
 40
0.000000
 41
0.000000
 42
1.000000
  0
SEQEND
  0
POLYLINE
  8
ET_TOP
 66
1
 70
1
 40
0.000000
 41
0.000000
 39
0.000000
  0
VERTEX
  8
ET_TOP
 10
23.292400
 20
25.761100
 40
0.000000
 41
0.000000
 42
1.677530
  0
VERTEX
  8
ET_TOP
 10
26.107600
 20
25.761100
 40
0.000000
 41
0.000000
 42
-0.568050
  0
VERTEX
  8
ET_TOP
 10
26.327500
 20
26.130000
 40
0.000000
 41
0.000000
 42
0.000000
  0
VERTEX
  8
ET_TOP
 10
27.500000
 20
26.130000
 40
0.000000
 41
0.000000
 42
0.000000
  0
VERTEX
  8
ET_TOP
 10
27.500000
 20
37.000000
 40
0.000000
 41
0.000000
 42
0.000000
  0
VERTEX
  8
ET_TOP
 10
2.500100
 20
37.000000
 40
0.000000
 41
0.000000
 42
0.000000
  0
VERTEX
  8
ET_TOP
 10
2.500100
 20
47.499900
 40
0.000000
 41
0.000000
 42
0.000000
  0
VERTEX
  8
ET_TOP
 10
34.300000
 20
47.499900
 40
0.000000
 41
0.000000
 42
0.000000
  0
VERTEX
  8
ET_TOP
 10
34.300000
 20
9.515000
 40
0.000000
 41
0.000000
 42
0.000000
  0
VERTEX
  8
ET_TOP
 10
15.290000
 20
9.515000
 40
0.000000
 41
0.000000
 42
0.000000
  0
VERTEX
  8
ET_TOP
 10
15.290000
 20
26.130000
 40
0.000000
 41
0.000000
 42
0.000000
  0
VERTEX
  8
ET_TOP
 10
23.072500
 20
26.130000
 40
0.000000
 41
0.000000
 42
-0.568050
  0
SEQEND
  0
POLYLINE
  8
ET_TOP
 66
1
 70
1
 40
0.000000
 41
0.000000
 39
0.000000
  0
VERTEX
  8
ET_TOP
 10
19.500400
 20
41.500000
 40
0.000000
 41
0.000000
 42
1.000000
  0
VERTEX
  8
ET_TOP
 10
18.799600
 20
41.500000
 40
0.000000
 41
0.000000
 42
1.000000
  0
SEQEND
  0
POLYLINE
  8
ET_TOP
 66
1
 70
1
 40
0.000000
 41
0.000000
 39
0.000000
  0
VERTEX
  8
ET_TOP
 10
29.300400
 20
12.300000
 40
0.000000
 41
0.000000
 42
1.000000
  0
VERTEX
  8
ET_TOP
 10
28.299586
 20
12.300018
 40
0.000000
 41
0.000000
 42
1.000000
  0
SEQEND
  0
POLYLINE
  8
ET_TOP
 66
1
 70
1
 40
0.000000
 41
0.000000
 39
0.000000
  0
VERTEX
  8
ET_TOP
 10
29.300400
 20
37.700000
 40
0.000000
 41
0.000000
 42
1.000000
  0
VERTEX
  8
ET_TOP
 10
28.299586
 20
37.700018
 40
0.000000
 41
0.000000
 42
1.000000
  0
SEQEND
  0
CIRCLE
  8
PIN_SOLDERMASK_TOP
 10
116.500000
 20
34.750000
 40
0.750000
  0
CIRCLE
  8
PIN_TOP
 10
112.500000
 20
3.900000
 40
1.000000
  0
POLYLINE
  8
PIN_SOLDERMASK_TOP
 66
1
 70
1
 40
0.000000
 41
0.000000
 39
0.000000
  0
VERTEX
  8
PIN_SOLDERMASK_TOP
 10
114.000000
 20
2.400000
 40
0.000000
 41
0.000000
 42
0.000000
  0
VERTEX
  8
PIN_SOLDERMASK_TOP
 10
111.000000
 20
2.400000
 40
0.000000
 41
0.000000
 42
0.000000
  0
VERTEX
  8
PIN_SOLDERMASK_TOP
 10
111.000000
 20
5.400000
 40
0.000000
 41
0.000000
 42
0.000000
  0
VERTEX
  8
PIN_SOLDERMASK_TOP
 10
114.000000
 20
5.400000
 40
0.000000
 41
0.000000
 42
0.000000
  0
SEQEND
  0
CIRCLE
  8
PIN_TOP
 10
221.000000
 20
46.000000
 40
1.000000
  0
POLYLINE
  8
PIN_SOLDERMASK_TOP
 66
1
 70
1
 40
0.000000
 41
0.000000
 39
0.000000
  0
VERTEX
  8
PIN_SOLDERMASK_TOP
 10
222.500000
 20
44.500000
 40
0.000000
 41
0.000000
 42
0.000000
  0
VERTEX
  8
PIN_SOLDERMASK_TOP
 10
219.500000
 20
44.500000
 40
0.000000
 41
0.000000
 42
0.000000
  0
VERTEX
  8
PIN_SOLDERMASK_TOP
 10
219.500000
 20
47.500000
 40
0.000000
 41
0.000000
 42
0.000000
  0
VERTEX
  8
PIN_SOLDERMASK_TOP
 10
222.500000
 20
47.500000
 40
0.000000
 41
0.000000
 42
0.000000
  0
SEQEND
  0
CIRCLE
  8
PIN_TOP
 10
4.000000
 20
4.000000
 40
1.000000
  0
POLYLINE
  8
PIN_SOLDERMASK_TOP
 66
1
 70
1
 40
0.000000
 41
0.000000
 39
0.000000
  0
VERTEX
  8
PIN_SOLDERMASK_TOP
 10
5.500000
 20
2.500000
 40
0.000000
 41
0.000000
 42
0.000000
  0
VERTEX
  8
PIN_SOLDERMASK_TOP
 10
2.500000
 20
2.500000
 40
0.000000
 41
0.000000
 42
0.000000
  0
VERTEX
  8
PIN_SOLDERMASK_TOP
 10
2.500000
 20
5.500000
 40
0.000000
 41
0.000000
 42
0.000000
  0
VERTEX
  8
PIN_SOLDERMASK_TOP
 10
5.500000
 20
5.500000
 40
0.000000
 41
0.000000
 42
0.000000
  0
SEQEND
  0
CIRCLE
  8
PIN_TOP
 10
199.600000
 20
47.500000
 40
1.050000
  0
CIRCLE
  8
PIN_SOLDERMASK_TOP
 10
199.600000
 20
47.500000
 40
1.100000
  0
INSERT
  8
MA_NCLEGEND-1-2
  2
FIGURE_CIRCLE
 10
199.600000
 20
47.500000
 41
2.100000
 42
2.100000
 50
0.000000
  0
TEXT
  8
MA_NCLEGEND-1-2
 10
198.900000
 20
46.975000
 11
199.600000
 21
47.500000
 40
1.050000
 41
1.000000
 50
0.000000
  7
STANDARD
 71
0
 72
1
  1
A
 73
2
  0
CIRCLE
  8
PIN_TOP
 10
222.100000
 20
25.000000
 40
1.050000
  0
CIRCLE
  8
PIN_SOLDERMASK_TOP
 10
222.100000
 20
25.000000
 40
1.100000
  0
INSERT
  8
MA_NCLEGEND-1-2
  2
FIGURE_CIRCLE
 10
222.100000
 20
25.000000
 41
2.100000
 42
2.100000
 50
0.000000
  0
TEXT
  8
MA_NCLEGEND-1-2
 10
221.400000
 20
24.475000
 11
222.100000
 21
25.000000
 40
1.050000
 41
1.000000
 50
0.000000
  7
STANDARD
 71
0
 72
1
  1
A
 73
2
  0
CIRCLE
  8
PIN_TOP
 10
199.600000
 20
2.500000
 40
1.050000
  0
CIRCLE
  8
PIN_SOLDERMASK_TOP
 10
199.600000
 20
2.500000
 40
1.100000
  0
INSERT
  8
MA_NCLEGEND-1-2
  2
FIGURE_CIRCLE
 10
199.600000
 20
2.500000
 41
2.100000
 42
2.100000
 50
0.000000
  0
TEXT
  8
MA_NCLEGEND-1-2
 10
198.900000
 20
1.975000
 11
199.600000
 21
2.500000
 40
1.050000
 41
1.000000
 50
0.000000
  7
STANDARD
 71
0
 72
1
  1
A
 73
2
  0
CIRCLE
  8
PIN_TOP
 10
148.800000
 20
2.500000
 40
1.050000
  0
CIRCLE
  8
PIN_SOLDERMASK_TOP
 10
148.800000
 20
2.500000
 40
1.100000
  0
INSERT
  8
MA_NCLEGEND-1-2
  2
FIGURE_CIRCLE
 10
148.800000
 20
2.500000
 41
2.100000
 42
2.100000
 50
0.000000
  0
TEXT
  8
MA_NCLEGEND-1-2
 10
148.100000
 20
1.975000
 11
148.800000
 21
2.500000
 40
1.050000
 41
1.000000
 50
0.000000
  7
STANDARD
 71
0
 72
1
  1
A
 73
2
  0
CIRCLE
  8
PIN_TOP
 10
148.800000
 20
47.500000
 40
1.050000
  0
CIRCLE
  8
PIN_SOLDERMASK_TOP
 10
148.800000
 20
47.500000
 40
1.100000
  0
INSERT
  8
MA_NCLEGEND-1-2
  2
FIGURE_CIRCLE
 10
148.800000
 20
47.500000
 41
2.100000
 42
2.100000
 50
0.000000
  0
TEXT
  8
MA_NCLEGEND-1-2
 10
148.100000
 20
46.975000
 11
148.800000
 21
47.500000
 40
1.050000
 41
1.000000
 50
0.000000
  7
STANDARD
 71
0
 72
1
  1
A
 73
2
  0
CIRCLE
  8
PIN_TOP
 10
177.100000
 20
25.000000
 40
1.050000
  0
CIRCLE
  8
PIN_SOLDERMASK_TOP
 10
177.100000
 20
25.000000
 40
1.100000
  0
INSERT
  8
MA_NCLEGEND-1-2
  2
FIGURE_CIRCLE
 10
177.100000
 20
25.000000
 41
2.100000
 42
2.100000
 50
0.000000
  0
TEXT
  8
MA_NCLEGEND-1-2
 10
176.400000
 20
24.475000
 11
177.100000
 21
25.000000
 40
1.050000
 41
1.000000
 50
0.000000
  7
STANDARD
 71
0
 72
1
  1
A
 73
2
  0
CIRCLE
  8
PIN_TOP
 10
171.300000
 20
25.000000
 40
1.050000
  0
CIRCLE
  8
PIN_SOLDERMASK_TOP
 10
171.300000
 20
25.000000
 40
1.100000
  0
INSERT
  8
MA_NCLEGEND-1-2
  2
FIGURE_CIRCLE
 10
171.300000
 20
25.000000
 41
2.100000
 42
2.100000
 50
0.000000
  0
TEXT
  8
MA_NCLEGEND-1-2
 10
170.600000
 20
24.475000
 11
171.300000
 21
25.000000
 40
1.050000
 41
1.000000
 50
0.000000
  7
STANDARD
 71
0
 72
1
  1
A
 73
2
  0
CIRCLE
  8
PIN_TOP
 10
126.300000
 20
25.000000
 40
1.050000
  0
CIRCLE
  8
PIN_SOLDERMASK_TOP
 10
126.300000
 20
25.000000
 40
1.100000
  0
INSERT
  8
MA_NCLEGEND-1-2
  2
FIGURE_CIRCLE
 10
126.300000
 20
25.000000
 41
2.100000
 42
2.100000
 50
0.000000
  0
TEXT
  8
MA_NCLEGEND-1-2
 10
125.600000
 20
24.475000
 11
126.300000
 21
25.000000
 40
1.050000
 41
1.000000
 50
0.000000
  7
STANDARD
 71
0
 72
1
  1
A
 73
2
  0
CIRCLE
  8
PIN_TOP
 10
120.500000
 20
25.000000
 40
1.050000
  0
CIRCLE
  8
PIN_SOLDERMASK_TOP
 10
120.500000
 20
25.000000
 40
1.100000
  0
INSERT
  8
MA_NCLEGEND-1-2
  2
FIGURE_CIRCLE
 10
120.500000
 20
25.000000
 41
2.100000
 42
2.100000
 50
0.000000
  0
TEXT
  8
MA_NCLEGEND-1-2
 10
119.800000
 20
24.475000
 11
120.500000
 21
25.000000
 40
1.050000
 41
1.000000
 50
0.000000
  7
STANDARD
 71
0
 72
1
  1
A
 73
2
  0
CIRCLE
  8
PIN_TOP
 10
98.000000
 20
2.500000
 40
1.050000
  0
CIRCLE
  8
PIN_SOLDERMASK_TOP
 10
98.000000
 20
2.500000
 40
1.100000
  0
INSERT
  8
MA_NCLEGEND-1-2
  2
FIGURE_CIRCLE
 10
98.000000
 20
2.500000
 41
2.100000
 42
2.100000
 50
0.000000
  0
TEXT
  8
MA_NCLEGEND-1-2
 10
97.300000
 20
1.975000
 11
98.000000
 21
2.500000
 40
1.050000
 41
1.000000
 50
0.000000
  7
STANDARD
 71
0
 72
1
  1
A
 73
2
  0
CIRCLE
  8
PIN_TOP
 10
98.000000
 20
47.500000
 40
1.050000
  0
CIRCLE
  8
PIN_SOLDERMASK_TOP
 10
98.000000
 20
47.500000
 40
1.100000
  0
INSERT
  8
MA_NCLEGEND-1-2
  2
FIGURE_CIRCLE
 10
98.000000
 20
47.500000
 41
2.100000
 42
2.100000
 50
0.000000
  0
TEXT
  8
MA_NCLEGEND-1-2
 10
97.300000
 20
46.975000
 11
98.000000
 21
47.500000
 40
1.050000
 41
1.000000
 50
0.000000
  7
STANDARD
 71
0
 72
1
  1
A
 73
2
  0
CIRCLE
  8
PIN_TOP
 10
75.500000
 20
25.000000
 40
1.050000
  0
CIRCLE
  8
PIN_SOLDERMASK_TOP
 10
75.500000
 20
25.000000
 40
1.100000
  0
INSERT
  8
MA_NCLEGEND-1-2
  2
FIGURE_CIRCLE
 10
75.500000
 20
25.000000
 41
2.100000
 42
2.100000
 50
0.000000
  0
TEXT
  8
MA_NCLEGEND-1-2
 10
74.800000
 20
24.475000
 11
75.500000
 21
25.000000
 40
1.050000
 41
1.000000
 50
0.000000
  7
STANDARD
 71
0
 72
1
  1
A
 73
2
  0
CIRCLE
  8
PIN_TOP
 10
69.700000
 20
25.000000
 40
1.050000
  0
CIRCLE
  8
PIN_SOLDERMASK_TOP
 10
69.700000
 20
25.000000
 40
1.100000
  0
INSERT
  8
MA_NCLEGEND-1-2
  2
FIGURE_CIRCLE
 10
69.700000
 20
25.000000
 41
2.100000
 42
2.100000
 50
0.000000
  0
TEXT
  8
MA_NCLEGEND-1-2
 10
69.000000
 20
24.475000
 11
69.700000
 21
25.000000
 40
1.050000
 41
1.000000
 50
0.000000
  7
STANDARD
 71
0
 72
1
  1
A
 73
2
  0
CIRCLE
  8
PIN_TOP
 10
47.200000
 20
2.500000
 40
1.050000
  0
CIRCLE
  8
PIN_SOLDERMASK_TOP
 10
47.200000
 20
2.500000
 40
1.100000
  0
INSERT
  8
MA_NCLEGEND-1-2
  2
FIGURE_CIRCLE
 10
47.200000
 20
2.500000
 41
2.100000
 42
2.100000
 50
0.000000
  0
TEXT
  8
MA_NCLEGEND-1-2
 10
46.500000
 20
1.975000
 11
47.200000
 21
2.500000
 40
1.050000
 41
1.000000
 50
0.000000
  7
STANDARD
 71
0
 72
1
  1
A
 73
2
  0
CIRCLE
  8
PIN_TOP
 10
24.700000
 20
25.000000
 40
1.050000
  0
CIRCLE
  8
PIN_SOLDERMASK_TOP
 10
24.700000
 20
25.000000
 40
1.100000
  0
INSERT
  8
MA_NCLEGEND-1-2
  2
FIGURE_CIRCLE
 10
24.700000
 20
25.000000
 41
2.100000
 42
2.100000
 50
0.000000
  0
TEXT
  8
MA_NCLEGEND-1-2
 10
24.000000
 20
24.475000
 11
24.700000
 21
25.000000
 40
1.050000
 41
1.000000
 50
0.000000
  7
STANDARD
 71
0
 72
1
  1
A
 73
2
  0
CIRCLE
  8
PIN_TOP
 10
47.200000
 20
47.500000
 40
1.050000
  0
CIRCLE
  8
PIN_SOLDERMASK_TOP
 10
47.200000
 20
47.500000
 40
1.100000
  0
INSERT
  8
MA_NCLEGEND-1-2
  2
FIGURE_CIRCLE
 10
47.200000
 20
47.500000
 41
2.100000
 42
2.100000
 50
0.000000
  0
TEXT
  8
MA_NCLEGEND-1-2
 10
46.500000
 20
46.975000
 11
47.200000
 21
47.500000
 40
1.050000
 41
1.000000
 50
0.000000
  7
STANDARD
 71
0
 72
1
  1
A
 73
2
  0
CIRCLE
  8
PIN_TOP
 10
199.600000
 20
25.000000
 40
1.600000
  0
CIRCLE
  8
PIN_SOLDERMASK_TOP
 10
199.600000
 20
25.000000
 40
1.650000
  0
INSERT
  8
MA_NCLEGEND-1-2
  2
FIGURE_CIRCLE
 10
199.600000
 20
25.000000
 41
3.200000
 42
3.200000
 50
0.000000
  0
TEXT
  8
MA_NCLEGEND-1-2
 10
198.533333
 20
24.200000
 11
199.600000
 21
25.000000
 40
1.600000
 41
1.000000
 50
0.000000
  7
STANDARD
 71
0
 72
1
  1
B
 73
2
  0
CIRCLE
  8
PIN_TOP
 10
148.800000
 20
25.000000
 40
1.600000
  0
CIRCLE
  8
PIN_SOLDERMASK_TOP
 10
148.800000
 20
25.000000
 40
1.650000
  0
INSERT
  8
MA_NCLEGEND-1-2
  2
FIGURE_CIRCLE
 10
148.800000
 20
25.000000
 41
3.200000
 42
3.200000
 50
0.000000
  0
TEXT
  8
MA_NCLEGEND-1-2
 10
147.733333
 20
24.200000
 11
148.800000
 21
25.000000
 40
1.600000
 41
1.000000
 50
0.000000
  7
STANDARD
 71
0
 72
1
  1
B
 73
2
  0
CIRCLE
  8
PIN_TOP
 10
98.000000
 20
25.000000
 40
1.600000
  0
CIRCLE
  8
PIN_SOLDERMASK_TOP
 10
98.000000
 20
25.000000
 40
1.650000
  0
INSERT
  8
MA_NCLEGEND-1-2
  2
FIGURE_CIRCLE
 10
98.000000
 20
25.000000
 41
3.200000
 42
3.200000
 50
0.000000
  0
TEXT
  8
MA_NCLEGEND-1-2
 10
96.933333
 20
24.200000
 11
98.000000
 21
25.000000
 40
1.600000
 41
1.000000
 50
0.000000
  7
STANDARD
 71
0
 72
1
  1
B
 73
2
  0
CIRCLE
  8
PIN_TOP
 10
47.200000
 20
25.000000
 40
1.600000
  0
CIRCLE
  8
PIN_SOLDERMASK_TOP
 10
47.200000
 20
25.000000
 40
1.650000
  0
INSERT
  8
MA_NCLEGEND-1-2
  2
FIGURE_CIRCLE
 10
47.200000
 20
25.000000
 41
3.200000
 42
3.200000
 50
0.000000
  0
TEXT
  8
MA_NCLEGEND-1-2
 10
46.133333
 20
24.200000
 11
47.200000
 21
25.000000
 40
1.600000
 41
1.000000
 50
0.000000
  7
STANDARD
 71
0
 72
1
  1
B
 73
2
  0
POLYLINE
  8
PIN_TOP
 66
1
 70
1
 40
0.000000
 41
0.000000
 39
0.000000
  0
VERTEX
  8
PIN_TOP
 10
34.300000
 20
35.485000
 40
0.000000
 41
0.000000
 42
0.000000
  0
VERTEX
  8
PIN_TOP
 10
32.600000
 20
35.485000
 40
0.000000
 41
0.000000
 42
0.000000
  0
VERTEX
  8
PIN_TOP
 10
32.600000
 20
34.915000
 40
0.000000
 41
0.000000
 42
0.000000
  0
VERTEX
  8
PIN_TOP
 10
31.800000
 20
34.915000
 40
0.000000
 41
0.000000
 42
0.000000
  0
VERTEX
  8
PIN_TOP
 10
31.800000
 20
35.485000
 40
0.000000
 41
0.000000
 42
0.000000
  0
VERTEX
  8
PIN_TOP
 10
32.200000
 20
35.485000
 40
0.000000
 41
0.000000
 42
0.000000
  0
VERTEX
  8
PIN_TOP
 10
32.200000
 20
39.915000
 40
0.000000
 41
0.000000
 42
0.000000
  0
VERTEX
  8
PIN_TOP
 10
31.800000
 20
39.915000
 40
0.000000
 41
0.000000
 42
0.000000
  0
VERTEX
  8
PIN_TOP
 10
31.800000
 20
40.485000
 40
0.000000
 41
0.000000
 42
0.000000
  0
VERTEX
  8
PIN_TOP
 10
32.600000
 20
40.485000
 40
0.000000
 41
0.000000
 42
0.000000
  0
VERTEX
  8
PIN_TOP
 10
32.600000
 20
39.915000
 40
0.000000
 41
0.000000
 42
0.000000
  0
VERTEX
  8
PIN_TOP
 10
34.300000
 20
39.915000
 40
0.000000
 41
0.000000
 42
0.000000
  0
VERTEX
  8
PIN_TOP
 10
34.300000
 20
37.700000
 40
0.000000
 41
0.000000
 42
0.000000
  0
SEQEND
  0
POLYLINE
  8
PIN_SOLDERMASK_TOP
 66
1
 70
1
 40
0.000000
 41
0.000000
 39
0.000000
  0
VERTEX
  8
PIN_SOLDERMASK_TOP
 10
34.300000
 20
35.485000
 40
0.000000
 41
0.000000
 42
0.000000
  0
VERTEX
  8
PIN_SOLDERMASK_TOP
 10
32.600000
 20
35.485000
 40
0.000000
 41
0.000000
 42
0.000000
  0
VERTEX
  8
PIN_SOLDERMASK_TOP
 10
32.600000
 20
34.915000
 40
0.000000
 41
0.000000
 42
0.000000
  0
VERTEX
  8
PIN_SOLDERMASK_TOP
 10
31.800000
 20
34.915000
 40
0.000000
 41
0.000000
 42
0.000000
  0
VERTEX
  8
PIN_SOLDERMASK_TOP
 10
31.800000
 20
35.485000
 40
0.000000
 41
0.000000
 42
0.000000
  0
VERTEX
  8
PIN_SOLDERMASK_TOP
 10
32.200000
 20
35.485000
 40
0.000000
 41
0.000000
 42
0.000000
  0
VERTEX
  8
PIN_SOLDERMASK_TOP
 10
32.200000
 20
39.915000
 40
0.000000
 41
0.000000
 42
0.000000
  0
VERTEX
  8
PIN_SOLDERMASK_TOP
 10
31.800000
 20
39.915000
 40
0.000000
 41
0.000000
 42
0.000000
  0
VERTEX
  8
PIN_SOLDERMASK_TOP
 10
31.800000
 20
40.485000
 40
0.000000
 41
0.000000
 42
0.000000
  0
VERTEX
  8
PIN_SOLDERMASK_TOP
 10
32.600000
 20
40.485000
 40
0.000000
 41
0.000000
 42
0.000000
  0
VERTEX
  8
PIN_SOLDERMASK_TOP
 10
32.600000
 20
39.915000
 40
0.000000
 41
0.000000
 42
0.000000
  0
VERTEX
  8
PIN_SOLDERMASK_TOP
 10
34.300000
 20
39.915000
 40
0.000000
 41
0.000000
 42
0.000000
  0
VERTEX
  8
PIN_SOLDERMASK_TOP
 10
34.300000
 20
37.700000
 40
0.000000
 41
0.000000
 42
0.000000
  0
SEQEND
  0
POLYLINE
  8
PIN_TOP
 66
1
 70
1
 40
0.000000
 41
0.000000
 39
0.000000
  0
VERTEX
  8
PIN_TOP
 10
34.700000
 20
39.915000
 40
0.000000
 41
0.000000
 42
0.000000
  0
VERTEX
  8
PIN_TOP
 10
36.400000
 20
39.915000
 40
0.000000
 41
0.000000
 42
0.000000
  0
VERTEX
  8
PIN_TOP
 10
36.400000
 20
40.485000
 40
0.000000
 41
0.000000
 42
0.000000
  0
VERTEX
  8
PIN_TOP
 10
37.200000
 20
40.485000
 40
0.000000
 41
0.000000
 42
0.000000
  0
VERTEX
  8
PIN_TOP
 10
37.200000
 20
39.915000
 40
0.000000
 41
0.000000
 42
0.000000
  0
VERTEX
  8
PIN_TOP
 10
36.800000
 20
39.915000
 40
0.000000
 41
0.000000
 42
0.000000
  0
VERTEX
  8
PIN_TOP
 10
36.800000
 20
35.485000
 40
0.000000
 41
0.000000
 42
0.000000
  0
VERTEX
  8
PIN_TOP
 10
37.200000
 20
35.485000
 40
0.000000
 41
0.000000
 42
0.000000
  0
VERTEX
  8
PIN_TOP
 10
37.200000
 20
34.915000
 40
0.000000
 41
0.000000
 42
0.000000
  0
VERTEX
  8
PIN_TOP
 10
36.400000
 20
34.915000
 40
0.000000
 41
0.000000
 42
0.000000
  0
VERTEX
  8
PIN_TOP
 10
36.400000
 20
35.485000
 40
0.000000
 41
0.000000
 42
0.000000
  0
VERTEX
  8
PIN_TOP
 10
34.700000
 20
35.485000
 40
0.000000
 41
0.000000
 42
0.000000
  0
VERTEX
  8
PIN_TOP
 10
34.700000
 20
37.700000
 40
0.000000
 41
0.000000
 42
0.000000
  0
SEQEND
  0
POLYLINE
  8
PIN_SOLDERMASK_TOP
 66
1
 70
1
 40
0.000000
 41
0.000000
 39
0.000000
  0
VERTEX
  8
PIN_SOLDERMASK_TOP
 10
34.700000
 20
39.915000
 40
0.000000
 41
0.000000
 42
0.000000
  0
VERTEX
  8
PIN_SOLDERMASK_TOP
 10
36.400000
 20
39.915000
 40
0.000000
 41
0.000000
 42
0.000000
  0
VERTEX
  8
PIN_SOLDERMASK_TOP
 10
36.400000
 20
40.485000
 40
0.000000
 41
0.000000
 42
0.000000
  0
VERTEX
  8
PIN_SOLDERMASK_TOP
 10
37.200000
 20
40.485000
 40
0.000000
 41
0.000000
 42
0.000000
  0
VERTEX
  8
PIN_SOLDERMASK_TOP
 10
37.200000
 20
39.915000
 40
0.000000
 41
0.000000
 42
0.000000
  0
VERTEX
  8
PIN_SOLDERMASK_TOP
 10
36.800000
 20
39.915000
 40
0.000000
 41
0.000000
 42
0.000000
  0
VERTEX
  8
PIN_SOLDERMASK_TOP
 10
36.800000
 20
35.485000
 40
0.000000
 41
0.000000
 42
0.000000
  0
VERTEX
  8
PIN_SOLDERMASK_TOP
 10
37.200000
 20
35.485000
 40
0.000000
 41
0.000000
 42
0.000000
  0
VERTEX
  8
PIN_SOLDERMASK_TOP
 10
37.200000
 20
34.915000
 40
0.000000
 41
0.000000
 42
0.000000
  0
VERTEX
  8
PIN_SOLDERMASK_TOP
 10
36.400000
 20
34.915000
 40
0.000000
 41
0.000000
 42
0.000000
  0
VERTEX
  8
PIN_SOLDERMASK_TOP
 10
36.400000
 20
35.485000
 40
0.000000
 41
0.000000
 42
0.000000
  0
VERTEX
  8
PIN_SOLDERMASK_TOP
 10
34.700000
 20
35.485000
 40
0.000000
 41
0.000000
 42
0.000000
  0
VERTEX
  8
PIN_SOLDERMASK_TOP
 10
34.700000
 20
37.700000
 40
0.000000
 41
0.000000
 42
0.000000
  0
SEQEND
  0
POLYLINE
  8
PG_SOLDERMASK_TOP
 66
1
 70
1
 40
0.000000
 41
0.000000
 39
0.000000
  0
VERTEX
  8
PG_SOLDERMASK_TOP
 10
40.600000
 20
37.700000
 40
0.000000
 41
0.000000
 42
1.000000
  0
VERTEX
  8
PG_SOLDERMASK_TOP
 10
39.799986
 20
37.700018
 40
0.000000
 41
0.000000
 42
1.000000
  0
SEQEND
  0
POLYLINE
  8
PG_SOLDERMASK_TOP
 66
1
 70
1
 40
0.000000
 41
0.000000
 39
0.000000
  0
VERTEX
  8
PG_SOLDERMASK_TOP
 10
29.200000
 20
37.700000
 40
0.000000
 41
0.000000
 42
1.000000
  0
VERTEX
  8
PG_SOLDERMASK_TOP
 10
28.399986
 20
37.700018
 40
0.000000
 41
0.000000
 42
1.000000
  0
SEQEND
  0
TEXT
  8
RD_SILKSCREEN_TOP
 10
33.250000
 20
41.250000
 11
0.000000
 21
0.000000
 40
0.800000
 41
1.250000
 50
0.000000
  7
STANDARD
 71
0
 72
0
  1
L01
 73
0
  0
POLYLINE
  8
PIN_TOP
 66
1
 70
1
 40
0.000000
 41
0.000000
 39
0.000000
  0
VERTEX
  8
PIN_TOP
 10
34.300000
 20
10.085000
 40
0.000000
 41
0.000000
 42
0.000000
  0
VERTEX
  8
PIN_TOP
 10
32.600000
 20
10.085000
 40
0.000000
 41
0.000000
 42
0.000000
  0
VERTEX
  8
PIN_TOP
 10
32.600000
 20
9.515000
 40
0.000000
 41
0.000000
 42
0.000000
  0
VERTEX
  8
PIN_TOP
 10
31.800000
 20
9.515000
 40
0.000000
 41
0.000000
 42
0.000000
  0
VERTEX
  8
PIN_TOP
 10
31.800000
 20
10.085000
 40
0.000000
 41
0.000000
 42
0.000000
  0
VERTEX
  8
PIN_TOP
 10
32.200000
 20
10.085000
 40
0.000000
 41
0.000000
 42
0.000000
  0
VERTEX
  8
PIN_TOP
 10
32.200000
 20
14.515000
 40
0.000000
 41
0.000000
 42
0.000000
  0
VERTEX
  8
PIN_TOP
 10
31.800000
 20
14.515000
 40
0.000000
 41
0.000000
 42
0.000000
  0
VERTEX
  8
PIN_TOP
 10
31.800000
 20
15.085000
 40
0.000000
 41
0.000000
 42
0.000000
  0
VERTEX
  8
PIN_TOP
 10
32.600000
 20
15.085000
 40
0.000000
 41
0.000000
 42
0.000000
  0
VERTEX
  8
PIN_TOP
 10
32.600000
 20
14.515000
 40
0.000000
 41
0.000000
 42
0.000000
  0
VERTEX
  8
PIN_TOP
 10
34.300000
 20
14.515000
 40
0.000000
 41
0.000000
 42
0.000000
  0
VERTEX
  8
PIN_TOP
 10
34.300000
 20
12.300000
 40
0.000000
 41
0.000000
 42
0.000000
  0
SEQEND
  0
POLYLINE
  8
PIN_SOLDERMASK_TOP
 66
1
 70
1
 40
0.000000
 41
0.000000
 39
0.000000
  0
VERTEX
  8
PIN_SOLDERMASK_TOP
 10
34.300000
 20
10.085000
 40
0.000000
 41
0.000000
 42
0.000000
  0
VERTEX
  8
PIN_SOLDERMASK_TOP
 10
32.600000
 20
10.085000
 40
0.000000
 41
0.000000
 42
0.000000
  0
VERTEX
  8
PIN_SOLDERMASK_TOP
 10
32.600000
 20
9.515000
 40
0.000000
 41
0.000000
 42
0.000000
  0
VERTEX
  8
PIN_SOLDERMASK_TOP
 10
31.800000
 20
9.515000
 40
0.000000
 41
0.000000
 42
0.000000
  0
VERTEX
  8
PIN_SOLDERMASK_TOP
 10
31.800000
 20
10.085000
 40
0.000000
 41
0.000000
 42
0.000000
  0
VERTEX
  8
PIN_SOLDERMASK_TOP
 10
32.200000
 20
10.085000
 40
0.000000
 41
0.000000
 42
0.000000
  0
VERTEX
  8
PIN_SOLDERMASK_TOP
 10
32.200000
 20
14.515000
 40
0.000000
 41
0.000000
 42
0.000000
  0
VERTEX
  8
PIN_SOLDERMASK_TOP
 10
31.800000
 20
14.515000
 40
0.000000
 41
0.000000
 42
0.000000
  0
VERTEX
  8
PIN_SOLDERMASK_TOP
 10
31.800000
 20
15.085000
 40
0.000000
 41
0.000000
 42
0.000000
  0
VERTEX
  8
PIN_SOLDERMASK_TOP
 10
32.600000
 20
15.085000
 40
0.000000
 41
0.000000
 42
0.000000
  0
VERTEX
  8
PIN_SOLDERMASK_TOP
 10
32.600000
 20
14.515000
 40
0.000000
 41
0.000000
 42
0.000000
  0
VERTEX
  8
PIN_SOLDERMASK_TOP
 10
34.300000
 20
14.515000
 40
0.000000
 41
0.000000
 42
0.000000
  0
VERTEX
  8
PIN_SOLDERMASK_TOP
 10
34.300000
 20
12.300000
 40
0.000000
 41
0.000000
 42
0.000000
  0
SEQEND
  0
POLYLINE
  8
PIN_TOP
 66
1
 70
1
 40
0.000000
 41
0.000000
 39
0.000000
  0
VERTEX
  8
PIN_TOP
 10
34.700000
 20
14.515000
 40
0.000000
 41
0.000000
 42
0.000000
  0
VERTEX
  8
PIN_TOP
 10
36.400000
 20
14.515000
 40
0.000000
 41
0.000000
 42
0.000000
  0
VERTEX
  8
PIN_TOP
 10
36.400000
 20
15.085000
 40
0.000000
 41
0.000000
 42
0.000000
  0
VERTEX
  8
PIN_TOP
 10
37.200000
 20
15.085000
 40
0.000000
 41
0.000000
 42
0.000000
  0
VERTEX
  8
PIN_TOP
 10
37.200000
 20
14.515000
 40
0.000000
 41
0.000000
 42
0.000000
  0
VERTEX
  8
PIN_TOP
 10
36.800000
 20
14.515000
 40
0.000000
 41
0.000000
 42
0.000000
  0
VERTEX
  8
PIN_TOP
 10
36.800000
 20
10.085000
 40
0.000000
 41
0.000000
 42
0.000000
  0
VERTEX
  8
PIN_TOP
 10
37.200000
 20
10.085000
 40
0.000000
 41
0.000000
 42
0.000000
  0
VERTEX
  8
PIN_TOP
 10
37.200000
 20
9.515000
 40
0.000000
 41
0.000000
 42
0.000000
  0
VERTEX
  8
PIN_TOP
 10
36.400000
 20
9.515000
 40
0.000000
 41
0.000000
 42
0.000000
  0
VERTEX
  8
PIN_TOP
 10
36.400000
 20
10.085000
 40
0.000000
 41
0.000000
 42
0.000000
  0
VERTEX
  8
PIN_TOP
 10
34.700000
 20
10.085000
 40
0.000000
 41
0.000000
 42
0.000000
  0
VERTEX
  8
PIN_TOP
 10
34.700000
 20
12.300000
 40
0.000000
 41
0.000000
 42
0.000000
  0
SEQEND
  0
POLYLINE
  8
PIN_SOLDERMASK_TOP
 66
1
 70
1
 40
0.000000
 41
0.000000
 39
0.000000
  0
VERTEX
  8
PIN_SOLDERMASK_TOP
 10
34.700000
 20
14.515000
 40
0.000000
 41
0.000000
 42
0.000000
  0
VERTEX
  8
PIN_SOLDERMASK_TOP
 10
36.400000
 20
14.515000
 40
0.000000
 41
0.000000
 42
0.000000
  0
VERTEX
  8
PIN_SOLDERMASK_TOP
 10
36.400000
 20
15.085000
 40
0.000000
 41
0.000000
 42
0.000000
  0
VERTEX
  8
PIN_SOLDERMASK_TOP
 10
37.200000
 20
15.085000
 40
0.000000
 41
0.000000
 42
0.000000
  0
VERTEX
  8
PIN_SOLDERMASK_TOP
 10
37.200000
 20
14.515000
 40
0.000000
 41
0.000000
 42
0.000000
  0
VERTEX
  8
PIN_SOLDERMASK_TOP
 10
36.800000
 20
14.515000
 40
0.000000
 41
0.000000
 42
0.000000
  0
VERTEX
  8
PIN_SOLDERMASK_TOP
 10
36.800000
 20
10.085000
 40
0.000000
 41
0.000000
 42
0.000000
  0
VERTEX
  8
PIN_SOLDERMASK_TOP
 10
37.200000
 20
10.085000
 40
0.000000
 41
0.000000
 42
0.000000
  0
VERTEX
  8
PIN_SOLDERMASK_TOP
 10
37.200000
 20
9.515000
 40
0.000000
 41
0.000000
 42
0.000000
  0
VERTEX
  8
PIN_SOLDERMASK_TOP
 10
36.400000
 20
9.515000
 40
0.000000
 41
0.000000
 42
0.000000
  0
VERTEX
  8
PIN_SOLDERMASK_TOP
 10
36.400000
 20
10.085000
 40
0.000000
 41
0.000000
 42
0.000000
  0
VERTEX
  8
PIN_SOLDERMASK_TOP
 10
34.700000
 20
10.085000
 40
0.000000
 41
0.000000
 42
0.000000
  0
VERTEX
  8
PIN_SOLDERMASK_TOP
 10
34.700000
 20
12.300000
 40
0.000000
 41
0.000000
 42
0.000000
  0
SEQEND
  0
POLYLINE
  8
PG_SOLDERMASK_TOP
 66
1
 70
1
 40
0.000000
 41
0.000000
 39
0.000000
  0
VERTEX
  8
PG_SOLDERMASK_TOP
 10
40.600000
 20
12.300000
 40
0.000000
 41
0.000000
 42
1.000000
  0
VERTEX
  8
PG_SOLDERMASK_TOP
 10
39.799986
 20
12.300018
 40
0.000000
 41
0.000000
 42
1.000000
  0
SEQEND
  0
POLYLINE
  8
PG_SOLDERMASK_TOP
 66
1
 70
1
 40
0.000000
 41
0.000000
 39
0.000000
  0
VERTEX
  8
PG_SOLDERMASK_TOP
 10
29.200000
 20
12.300000
 40
0.000000
 41
0.000000
 42
1.000000
  0
VERTEX
  8
PG_SOLDERMASK_TOP
 10
28.399986
 20
12.300018
 40
0.000000
 41
0.000000
 42
1.000000
  0
SEQEND
  0
TEXT
  8
RD_SILKSCREEN_TOP
 10
33.000000
 20
15.750000
 11
0.000000
 21
0.000000
 40
0.800000
 41
1.250000
 50
0.000000
  7
STANDARD
 71
0
 72
0
  1
L02
 73
0
  0
POLYLINE
  8
PIN_TOP
 66
1
 70
1
 40
0.000000
 41
0.000000
 39
0.000000
  0
VERTEX
  8
PIN_TOP
 10
59.700000
 20
35.485000
 40
0.000000
 41
0.000000
 42
0.000000
  0
VERTEX
  8
PIN_TOP
 10
58.000000
 20
35.485000
 40
0.000000
 41
0.000000
 42
0.000000
  0
VERTEX
  8
PIN_TOP
 10
58.000000
 20
34.915000
 40
0.000000
 41
0.000000
 42
0.000000
  0
VERTEX
  8
PIN_TOP
 10
57.200000
 20
34.915000
 40
0.000000
 41
0.000000
 42
0.000000
  0
VERTEX
  8
PIN_TOP
 10
57.200000
 20
35.485000
 40
0.000000
 41
0.000000
 42
0.000000
  0
VERTEX
  8
PIN_TOP
 10
57.600000
 20
35.485000
 40
0.000000
 41
0.000000
 42
0.000000
  0
VERTEX
  8
PIN_TOP
 10
57.600000
 20
39.915000
 40
0.000000
 41
0.000000
 42
0.000000
  0
VERTEX
  8
PIN_TOP
 10
57.200000
 20
39.915000
 40
0.000000
 41
0.000000
 42
0.000000
  0
VERTEX
  8
PIN_TOP
 10
57.200000
 20
40.485000
 40
0.000000
 41
0.000000
 42
0.000000
  0
VERTEX
  8
PIN_TOP
 10
58.000000
 20
40.485000
 40
0.000000
 41
0.000000
 42
0.000000
  0
VERTEX
  8
PIN_TOP
 10
58.000000
 20
39.915000
 40
0.000000
 41
0.000000
 42
0.000000
  0
VERTEX
  8
PIN_TOP
 10
59.700000
 20
39.915000
 40
0.000000
 41
0.000000
 42
0.000000
  0
VERTEX
  8
PIN_TOP
 10
59.700000
 20
37.700000
 40
0.000000
 41
0.000000
 42
0.000000
  0
SEQEND
  0
POLYLINE
  8
PIN_SOLDERMASK_TOP
 66
1
 70
1
 40
0.000000
 41
0.000000
 39
0.000000
  0
VERTEX
  8
PIN_SOLDERMASK_TOP
 10
59.700000
 20
35.485000
 40
0.000000
 41
0.000000
 42
0.000000
  0
VERTEX
  8
PIN_SOLDERMASK_TOP
 10
58.000000
 20
35.485000
 40
0.000000
 41
0.000000
 42
0.000000
  0
VERTEX
  8
PIN_SOLDERMASK_TOP
 10
58.000000
 20
34.915000
 40
0.000000
 41
0.000000
 42
0.000000
  0
VERTEX
  8
PIN_SOLDERMASK_TOP
 10
57.200000
 20
34.915000
 40
0.000000
 41
0.000000
 42
0.000000
  0
VERTEX
  8
PIN_SOLDERMASK_TOP
 10
57.200000
 20
35.485000
 40
0.000000
 41
0.000000
 42
0.000000
  0
VERTEX
  8
PIN_SOLDERMASK_TOP
 10
57.600000
 20
35.485000
 40
0.000000
 41
0.000000
 42
0.000000
  0
VERTEX
  8
PIN_SOLDERMASK_TOP
 10
57.600000
 20
39.915000
 40
0.000000
 41
0.000000
 42
0.000000
  0
VERTEX
  8
PIN_SOLDERMASK_TOP
 10
57.200000
 20
39.915000
 40
0.000000
 41
0.000000
 42
0.000000
  0
VERTEX
  8
PIN_SOLDERMASK_TOP
 10
57.200000
 20
40.485000
 40
0.000000
 41
0.000000
 42
0.000000
  0
VERTEX
  8
PIN_SOLDERMASK_TOP
 10
58.000000
 20
40.485000
 40
0.000000
 41
0.000000
 42
0.000000
  0
VERTEX
  8
PIN_SOLDERMASK_TOP
 10
58.000000
 20
39.915000
 40
0.000000
 41
0.000000
 42
0.000000
  0
VERTEX
  8
PIN_SOLDERMASK_TOP
 10
59.700000
 20
39.915000
 40
0.000000
 41
0.000000
 42
0.000000
  0
VERTEX
  8
PIN_SOLDERMASK_TOP
 10
59.700000
 20
37.700000
 40
0.000000
 41
0.000000
 42
0.000000
  0
SEQEND
  0
POLYLINE
  8
PIN_TOP
 66
1
 70
1
 40
0.000000
 41
0.000000
 39
0.000000
  0
VERTEX
  8
PIN_TOP
 10
60.100000
 20
39.915000
 40
0.000000
 41
0.000000
 42
0.000000
  0
VERTEX
  8
PIN_TOP
 10
61.800000
 20
39.915000
 40
0.000000
 41
0.000000
 42
0.000000
  0
VERTEX
  8
PIN_TOP
 10
61.800000
 20
40.485000
 40
0.000000
 41
0.000000
 42
0.000000
  0
VERTEX
  8
PIN_TOP
 10
62.600000
 20
40.485000
 40
0.000000
 41
0.000000
 42
0.000000
  0
VERTEX
  8
PIN_TOP
 10
62.600000
 20
39.915000
 40
0.000000
 41
0.000000
 42
0.000000
  0
VERTEX
  8
PIN_TOP
 10
62.200000
 20
39.915000
 40
0.000000
 41
0.000000
 42
0.000000
  0
VERTEX
  8
PIN_TOP
 10
62.200000
 20
35.485000
 40
0.000000
 41
0.000000
 42
0.000000
  0
VERTEX
  8
PIN_TOP
 10
62.600000
 20
35.485000
 40
0.000000
 41
0.000000
 42
0.000000
  0
VERTEX
  8
PIN_TOP
 10
62.600000
 20
34.915000
 40
0.000000
 41
0.000000
 42
0.000000
  0
VERTEX
  8
PIN_TOP
 10
61.800000
 20
34.915000
 40
0.000000
 41
0.000000
 42
0.000000
  0
VERTEX
  8
PIN_TOP
 10
61.800000
 20
35.485000
 40
0.000000
 41
0.000000
 42
0.000000
  0
VERTEX
  8
PIN_TOP
 10
60.100000
 20
35.485000
 40
0.000000
 41
0.000000
 42
0.000000
  0
VERTEX
  8
PIN_TOP
 10
60.100000
 20
37.700000
 40
0.000000
 41
0.000000
 42
0.000000
  0
SEQEND
  0
POLYLINE
  8
PIN_SOLDERMASK_TOP
 66
1
 70
1
 40
0.000000
 41
0.000000
 39
0.000000
  0
VERTEX
  8
PIN_SOLDERMASK_TOP
 10
60.100000
 20
39.915000
 40
0.000000
 41
0.000000
 42
0.000000
  0
VERTEX
  8
PIN_SOLDERMASK_TOP
 10
61.800000
 20
39.915000
 40
0.000000
 41
0.000000
 42
0.000000
  0
VERTEX
  8
PIN_SOLDERMASK_TOP
 10
61.800000
 20
40.485000
 40
0.000000
 41
0.000000
 42
0.000000
  0
VERTEX
  8
PIN_SOLDERMASK_TOP
 10
62.600000
 20
40.485000
 40
0.000000
 41
0.000000
 42
0.000000
  0
VERTEX
  8
PIN_SOLDERMASK_TOP
 10
62.600000
 20
39.915000
 40
0.000000
 41
0.000000
 42
0.000000
  0
VERTEX
  8
PIN_SOLDERMASK_TOP
 10
62.200000
 20
39.915000
 40
0.000000
 41
0.000000
 42
0.000000
  0
VERTEX
  8
PIN_SOLDERMASK_TOP
 10
62.200000
 20
35.485000
 40
0.000000
 41
0.000000
 42
0.000000
  0
VERTEX
  8
PIN_SOLDERMASK_TOP
 10
62.600000
 20
35.485000
 40
0.000000
 41
0.000000
 42
0.000000
  0
VERTEX
  8
PIN_SOLDERMASK_TOP
 10
62.600000
 20
34.915000
 40
0.000000
 41
0.000000
 42
0.000000
  0
VERTEX
  8
PIN_SOLDERMASK_TOP
 10
61.800000
 20
34.915000
 40
0.000000
 41
0.000000
 42
0.000000
  0
VERTEX
  8
PIN_SOLDERMASK_TOP
 10
61.800000
 20
35.485000
 40
0.000000
 41
0.000000
 42
0.000000
  0
VERTEX
  8
PIN_SOLDERMASK_TOP
 10
60.100000
 20
35.485000
 40
0.000000
 41
0.000000
 42
0.000000
  0
VERTEX
  8
PIN_SOLDERMASK_TOP
 10
60.100000
 20
37.700000
 40
0.000000
 41
0.000000
 42
0.000000
  0
SEQEND
  0
POLYLINE
  8
PG_SOLDERMASK_TOP
 66
1
 70
1
 40
0.000000
 41
0.000000
 39
0.000000
  0
VERTEX
  8
PG_SOLDERMASK_TOP
 10
66.000000
 20
37.700000
 40
0.000000
 41
0.000000
 42
1.000000
  0
VERTEX
  8
PG_SOLDERMASK_TOP
 10
65.199986
 20
37.700018
 40
0.000000
 41
0.000000
 42
1.000000
  0
SEQEND
  0
POLYLINE
  8
PG_SOLDERMASK_TOP
 66
1
 70
1
 40
0.000000
 41
0.000000
 39
0.000000
  0
VERTEX
  8
PG_SOLDERMASK_TOP
 10
54.600000
 20
37.700000
 40
0.000000
 41
0.000000
 42
1.000000
  0
VERTEX
  8
PG_SOLDERMASK_TOP
 10
53.799986
 20
37.700018
 40
0.000000
 41
0.000000
 42
1.000000
  0
SEQEND
  0
TEXT
  8
RD_SILKSCREEN_TOP
 10
58.500000
 20
41.250000
 11
0.000000
 21
0.000000
 40
0.800000
 41
1.250000
 50
0.000000
  7
STANDARD
 71
0
 72
0
  1
L03
 73
0
  0
POLYLINE
  8
PIN_TOP
 66
1
 70
1
 40
0.000000
 41
0.000000
 39
0.000000
  0
VERTEX
  8
PIN_TOP
 10
59.700000
 20
10.085000
 40
0.000000
 41
0.000000
 42
0.000000
  0
VERTEX
  8
PIN_TOP
 10
58.000000
 20
10.085000
 40
0.000000
 41
0.000000
 42
0.000000
  0
VERTEX
  8
PIN_TOP
 10
58.000000
 20
9.515000
 40
0.000000
 41
0.000000
 42
0.000000
  0
VERTEX
  8
PIN_TOP
 10
57.200000
 20
9.515000
 40
0.000000
 41
0.000000
 42
0.000000
  0
VERTEX
  8
PIN_TOP
 10
57.200000
 20
10.085000
 40
0.000000
 41
0.000000
 42
0.000000
  0
VERTEX
  8
PIN_TOP
 10
57.600000
 20
10.085000
 40
0.000000
 41
0.000000
 42
0.000000
  0
VERTEX
  8
PIN_TOP
 10
57.600000
 20
14.515000
 40
0.000000
 41
0.000000
 42
0.000000
  0
VERTEX
  8
PIN_TOP
 10
57.200000
 20
14.515000
 40
0.000000
 41
0.000000
 42
0.000000
  0
VERTEX
  8
PIN_TOP
 10
57.200000
 20
15.085000
 40
0.000000
 41
0.000000
 42
0.000000
  0
VERTEX
  8
PIN_TOP
 10
58.000000
 20
15.085000
 40
0.000000
 41
0.000000
 42
0.000000
  0
VERTEX
  8
PIN_TOP
 10
58.000000
 20
14.515000
 40
0.000000
 41
0.000000
 42
0.000000
  0
VERTEX
  8
PIN_TOP
 10
59.700000
 20
14.515000
 40
0.000000
 41
0.000000
 42
0.000000
  0
VERTEX
  8
PIN_TOP
 10
59.700000
 20
12.300000
 40
0.000000
 41
0.000000
 42
0.000000
  0
SEQEND
  0
POLYLINE
  8
PIN_SOLDERMASK_TOP
 66
1
 70
1
 40
0.000000
 41
0.000000
 39
0.000000
  0
VERTEX
  8
PIN_SOLDERMASK_TOP
 10
59.700000
 20
10.085000
 40
0.000000
 41
0.000000
 42
0.000000
  0
VERTEX
  8
PIN_SOLDERMASK_TOP
 10
58.000000
 20
10.085000
 40
0.000000
 41
0.000000
 42
0.000000
  0
VERTEX
  8
PIN_SOLDERMASK_TOP
 10
58.000000
 20
9.515000
 40
0.000000
 41
0.000000
 42
0.000000
  0
VERTEX
  8
PIN_SOLDERMASK_TOP
 10
57.200000
 20
9.515000
 40
0.000000
 41
0.000000
 42
0.000000
  0
VERTEX
  8
PIN_SOLDERMASK_TOP
 10
57.200000
 20
10.085000
 40
0.000000
 41
0.000000
 42
0.000000
  0
VERTEX
  8
PIN_SOLDERMASK_TOP
 10
57.600000
 20
10.085000
 40
0.000000
 41
0.000000
 42
0.000000
  0
VERTEX
  8
PIN_SOLDERMASK_TOP
 10
57.600000
 20
14.515000
 40
0.000000
 41
0.000000
 42
0.000000
  0
VERTEX
  8
PIN_SOLDERMASK_TOP
 10
57.200000
 20
14.515000
 40
0.000000
 41
0.000000
 42
0.000000
  0
VERTEX
  8
PIN_SOLDERMASK_TOP
 10
57.200000
 20
15.085000
 40
0.000000
 41
0.000000
 42
0.000000
  0
VERTEX
  8
PIN_SOLDERMASK_TOP
 10
58.000000
 20
15.085000
 40
0.000000
 41
0.000000
 42
0.000000
  0
VERTEX
  8
PIN_SOLDERMASK_TOP
 10
58.000000
 20
14.515000
 40
0.000000
 41
0.000000
 42
0.000000
  0
VERTEX
  8
PIN_SOLDERMASK_TOP
 10
59.700000
 20
14.515000
 40
0.000000
 41
0.000000
 42
0.000000
  0
VERTEX
  8
PIN_SOLDERMASK_TOP
 10
59.700000
 20
12.300000
 40
0.000000
 41
0.000000
 42
0.000000
  0
SEQEND
  0
POLYLINE
  8
PIN_TOP
 66
1
 70
1
 40
0.000000
 41
0.000000
 39
0.000000
  0
VERTEX
  8
PIN_TOP
 10
60.100000
 20
14.515000
 40
0.000000
 41
0.000000
 42
0.000000
  0
VERTEX
  8
PIN_TOP
 10
61.800000
 20
14.515000
 40
0.000000
 41
0.000000
 42
0.000000
  0
VERTEX
  8
PIN_TOP
 10
61.800000
 20
15.085000
 40
0.000000
 41
0.000000
 42
0.000000
  0
VERTEX
  8
PIN_TOP
 10
62.600000
 20
15.085000
 40
0.000000
 41
0.000000
 42
0.000000
  0
VERTEX
  8
PIN_TOP
 10
62.600000
 20
14.515000
 40
0.000000
 41
0.000000
 42
0.000000
  0
VERTEX
  8
PIN_TOP
 10
62.200000
 20
14.515000
 40
0.000000
 41
0.000000
 42
0.000000
  0
VERTEX
  8
PIN_TOP
 10
62.200000
 20
10.085000
 40
0.000000
 41
0.000000
 42
0.000000
  0
VERTEX
  8
PIN_TOP
 10
62.600000
 20
10.085000
 40
0.000000
 41
0.000000
 42
0.000000
  0
VERTEX
  8
PIN_TOP
 10
62.600000
 20
9.515000
 40
0.000000
 41
0.000000
 42
0.000000
  0
VERTEX
  8
PIN_TOP
 10
61.800000
 20
9.515000
 40
0.000000
 41
0.000000
 42
0.000000
  0
VERTEX
  8
PIN_TOP
 10
61.800000
 20
10.085000
 40
0.000000
 41
0.000000
 42
0.000000
  0
VERTEX
  8
PIN_TOP
 10
60.100000
 20
10.085000
 40
0.000000
 41
0.000000
 42
0.000000
  0
VERTEX
  8
PIN_TOP
 10
60.100000
 20
12.300000
 40
0.000000
 41
0.000000
 42
0.000000
  0
SEQEND
  0
POLYLINE
  8
PIN_SOLDERMASK_TOP
 66
1
 70
1
 40
0.000000
 41
0.000000
 39
0.000000
  0
VERTEX
  8
PIN_SOLDERMASK_TOP
 10
60.100000
 20
14.515000
 40
0.000000
 41
0.000000
 42
0.000000
  0
VERTEX
  8
PIN_SOLDERMASK_TOP
 10
61.800000
 20
14.515000
 40
0.000000
 41
0.000000
 42
0.000000
  0
VERTEX
  8
PIN_SOLDERMASK_TOP
 10
61.800000
 20
15.085000
 40
0.000000
 41
0.000000
 42
0.000000
  0
VERTEX
  8
PIN_SOLDERMASK_TOP
 10
62.600000
 20
15.085000
 40
0.000000
 41
0.000000
 42
0.000000
  0
VERTEX
  8
PIN_SOLDERMASK_TOP
 10
62.600000
 20
14.515000
 40
0.000000
 41
0.000000
 42
0.000000
  0
VERTEX
  8
PIN_SOLDERMASK_TOP
 10
62.200000
 20
14.515000
 40
0.000000
 41
0.000000
 42
0.000000
  0
VERTEX
  8
PIN_SOLDERMASK_TOP
 10
62.200000
 20
10.085000
 40
0.000000
 41
0.000000
 42
0.000000
  0
VERTEX
  8
PIN_SOLDERMASK_TOP
 10
62.600000
 20
10.085000
 40
0.000000
 41
0.000000
 42
0.000000
  0
VERTEX
  8
PIN_SOLDERMASK_TOP
 10
62.600000
 20
9.515000
 40
0.000000
 41
0.000000
 42
0.000000
  0
VERTEX
  8
PIN_SOLDERMASK_TOP
 10
61.800000
 20
9.515000
 40
0.000000
 41
0.000000
 42
0.000000
  0
VERTEX
  8
PIN_SOLDERMASK_TOP
 10
61.800000
 20
10.085000
 40
0.000000
 41
0.000000
 42
0.000000
  0
VERTEX
  8
PIN_SOLDERMASK_TOP
 10
60.100000
 20
10.085000
 40
0.000000
 41
0.000000
 42
0.000000
  0
VERTEX
  8
PIN_SOLDERMASK_TOP
 10
60.100000
 20
12.300000
 40
0.000000
 41
0.000000
 42
0.000000
  0
SEQEND
  0
POLYLINE
  8
PG_SOLDERMASK_TOP
 66
1
 70
1
 40
0.000000
 41
0.000000
 39
0.000000
  0
VERTEX
  8
PG_SOLDERMASK_TOP
 10
66.000000
 20
12.300000
 40
0.000000
 41
0.000000
 42
1.000000
  0
VERTEX
  8
PG_SOLDERMASK_TOP
 10
65.199986
 20
12.300018
 40
0.000000
 41
0.000000
 42
1.000000
  0
SEQEND
  0
POLYLINE
  8
PG_SOLDERMASK_TOP
 66
1
 70
1
 40
0.000000
 41
0.000000
 39
0.000000
  0
VERTEX
  8
PG_SOLDERMASK_TOP
 10
54.600000
 20
12.300000
 40
0.000000
 41
0.000000
 42
1.000000
  0
VERTEX
  8
PG_SOLDERMASK_TOP
 10
53.799986
 20
12.300018
 40
0.000000
 41
0.000000
 42
1.000000
  0
SEQEND
  0
TEXT
  8
RD_SILKSCREEN_TOP
 10
58.500000
 20
15.750000
 11
0.000000
 21
0.000000
 40
0.800000
 41
1.250000
 50
0.000000
  7
STANDARD
 71
0
 72
0
  1
L04
 73
0
  0
POLYLINE
  8
PIN_TOP
 66
1
 70
1
 40
0.000000
 41
0.000000
 39
0.000000
  0
VERTEX
  8
PIN_TOP
 10
85.100000
 20
35.485000
 40
0.000000
 41
0.000000
 42
0.000000
  0
VERTEX
  8
PIN_TOP
 10
83.400000
 20
35.485000
 40
0.000000
 41
0.000000
 42
0.000000
  0
VERTEX
  8
PIN_TOP
 10
83.400000
 20
34.915000
 40
0.000000
 41
0.000000
 42
0.000000
  0
VERTEX
  8
PIN_TOP
 10
82.600000
 20
34.915000
 40
0.000000
 41
0.000000
 42
0.000000
  0
VERTEX
  8
PIN_TOP
 10
82.600000
 20
35.485000
 40
0.000000
 41
0.000000
 42
0.000000
  0
VERTEX
  8
PIN_TOP
 10
83.000000
 20
35.485000
 40
0.000000
 41
0.000000
 42
0.000000
  0
VERTEX
  8
PIN_TOP
 10
83.000000
 20
39.915000
 40
0.000000
 41
0.000000
 42
0.000000
  0
VERTEX
  8
PIN_TOP
 10
82.600000
 20
39.915000
 40
0.000000
 41
0.000000
 42
0.000000
  0
VERTEX
  8
PIN_TOP
 10
82.600000
 20
40.485000
 40
0.000000
 41
0.000000
 42
0.000000
  0
VERTEX
  8
PIN_TOP
 10
83.400000
 20
40.485000
 40
0.000000
 41
0.000000
 42
0.000000
  0
VERTEX
  8
PIN_TOP
 10
83.400000
 20
39.915000
 40
0.000000
 41
0.000000
 42
0.000000
  0
VERTEX
  8
PIN_TOP
 10
85.100000
 20
39.915000
 40
0.000000
 41
0.000000
 42
0.000000
  0
VERTEX
  8
PIN_TOP
 10
85.100000
 20
37.700000
 40
0.000000
 41
0.000000
 42
0.000000
  0
SEQEND
  0
POLYLINE
  8
PIN_SOLDERMASK_TOP
 66
1
 70
1
 40
0.000000
 41
0.000000
 39
0.000000
  0
VERTEX
  8
PIN_SOLDERMASK_TOP
 10
85.100000
 20
35.485000
 40
0.000000
 41
0.000000
 42
0.000000
  0
VERTEX
  8
PIN_SOLDERMASK_TOP
 10
83.400000
 20
35.485000
 40
0.000000
 41
0.000000
 42
0.000000
  0
VERTEX
  8
PIN_SOLDERMASK_TOP
 10
83.400000
 20
34.915000
 40
0.000000
 41
0.000000
 42
0.000000
  0
VERTEX
  8
PIN_SOLDERMASK_TOP
 10
82.600000
 20
34.915000
 40
0.000000
 41
0.000000
 42
0.000000
  0
VERTEX
  8
PIN_SOLDERMASK_TOP
 10
82.600000
 20
35.485000
 40
0.000000
 41
0.000000
 42
0.000000
  0
VERTEX
  8
PIN_SOLDERMASK_TOP
 10
83.000000
 20
35.485000
 40
0.000000
 41
0.000000
 42
0.000000
  0
VERTEX
  8
PIN_SOLDERMASK_TOP
 10
83.000000
 20
39.915000
 40
0.000000
 41
0.000000
 42
0.000000
  0
VERTEX
  8
PIN_SOLDERMASK_TOP
 10
82.600000
 20
39.915000
 40
0.000000
 41
0.000000
 42
0.000000
  0
VERTEX
  8
PIN_SOLDERMASK_TOP
 10
82.600000
 20
40.485000
 40
0.000000
 41
0.000000
 42
0.000000
  0
VERTEX
  8
PIN_SOLDERMASK_TOP
 10
83.400000
 20
40.485000
 40
0.000000
 41
0.000000
 42
0.000000
  0
VERTEX
  8
PIN_SOLDERMASK_TOP
 10
83.400000
 20
39.915000
 40
0.000000
 41
0.000000
 42
0.000000
  0
VERTEX
  8
PIN_SOLDERMASK_TOP
 10
85.100000
 20
39.915000
 40
0.000000
 41
0.000000
 42
0.000000
  0
VERTEX
  8
PIN_SOLDERMASK_TOP
 10
85.100000
 20
37.700000
 40
0.000000
 41
0.000000
 42
0.000000
  0
SEQEND
  0
POLYLINE
  8
PIN_TOP
 66
1
 70
1
 40
0.000000
 41
0.000000
 39
0.000000
  0
VERTEX
  8
PIN_TOP
 10
85.500000
 20
39.915000
 40
0.000000
 41
0.000000
 42
0.000000
  0
VERTEX
  8
PIN_TOP
 10
87.200000
 20
39.915000
 40
0.000000
 41
0.000000
 42
0.000000
  0
VERTEX
  8
PIN_TOP
 10
87.200000
 20
40.485000
 40
0.000000
 41
0.000000
 42
0.000000
  0
VERTEX
  8
PIN_TOP
 10
88.000000
 20
40.485000
 40
0.000000
 41
0.000000
 42
0.000000
  0
VERTEX
  8
PIN_TOP
 10
88.000000
 20
39.915000
 40
0.000000
 41
0.000000
 42
0.000000
  0
VERTEX
  8
PIN_TOP
 10
87.600000
 20
39.915000
 40
0.000000
 41
0.000000
 42
0.000000
  0
VERTEX
  8
PIN_TOP
 10
87.600000
 20
35.485000
 40
0.000000
 41
0.000000
 42
0.000000
  0
VERTEX
  8
PIN_TOP
 10
88.000000
 20
35.485000
 40
0.000000
 41
0.000000
 42
0.000000
  0
VERTEX
  8
PIN_TOP
 10
88.000000
 20
34.915000
 40
0.000000
 41
0.000000
 42
0.000000
  0
VERTEX
  8
PIN_TOP
 10
87.200000
 20
34.915000
 40
0.000000
 41
0.000000
 42
0.000000
  0
VERTEX
  8
PIN_TOP
 10
87.200000
 20
35.485000
 40
0.000000
 41
0.000000
 42
0.000000
  0
VERTEX
  8
PIN_TOP
 10
85.500000
 20
35.485000
 40
0.000000
 41
0.000000
 42
0.000000
  0
VERTEX
  8
PIN_TOP
 10
85.500000
 20
37.700000
 40
0.000000
 41
0.000000
 42
0.000000
  0
SEQEND
  0
POLYLINE
  8
PIN_SOLDERMASK_TOP
 66
1
 70
1
 40
0.000000
 41
0.000000
 39
0.000000
  0
VERTEX
  8
PIN_SOLDERMASK_TOP
 10
85.500000
 20
39.915000
 40
0.000000
 41
0.000000
 42
0.000000
  0
VERTEX
  8
PIN_SOLDERMASK_TOP
 10
87.200000
 20
39.915000
 40
0.000000
 41
0.000000
 42
0.000000
  0
VERTEX
  8
PIN_SOLDERMASK_TOP
 10
87.200000
 20
40.485000
 40
0.000000
 41
0.000000
 42
0.000000
  0
VERTEX
  8
PIN_SOLDERMASK_TOP
 10
88.000000
 20
40.485000
 40
0.000000
 41
0.000000
 42
0.000000
  0
VERTEX
  8
PIN_SOLDERMASK_TOP
 10
88.000000
 20
39.915000
 40
0.000000
 41
0.000000
 42
0.000000
  0
VERTEX
  8
PIN_SOLDERMASK_TOP
 10
87.600000
 20
39.915000
 40
0.000000
 41
0.000000
 42
0.000000
  0
VERTEX
  8
PIN_SOLDERMASK_TOP
 10
87.600000
 20
35.485000
 40
0.000000
 41
0.000000
 42
0.000000
  0
VERTEX
  8
PIN_SOLDERMASK_TOP
 10
88.000000
 20
35.485000
 40
0.000000
 41
0.000000
 42
0.000000
  0
VERTEX
  8
PIN_SOLDERMASK_TOP
 10
88.000000
 20
34.915000
 40
0.000000
 41
0.000000
 42
0.000000
  0
VERTEX
  8
PIN_SOLDERMASK_TOP
 10
87.200000
 20
34.915000
 40
0.000000
 41
0.000000
 42
0.000000
  0
VERTEX
  8
PIN_SOLDERMASK_TOP
 10
87.200000
 20
35.485000
 40
0.000000
 41
0.000000
 42
0.000000
  0
VERTEX
  8
PIN_SOLDERMASK_TOP
 10
85.500000
 20
35.485000
 40
0.000000
 41
0.000000
 42
0.000000
  0
VERTEX
  8
PIN_SOLDERMASK_TOP
 10
85.500000
 20
37.700000
 40
0.000000
 41
0.000000
 42
0.000000
  0
SEQEND
  0
POLYLINE
  8
PG_SOLDERMASK_TOP
 66
1
 70
1
 40
0.000000
 41
0.000000
 39
0.000000
  0
VERTEX
  8
PG_SOLDERMASK_TOP
 10
91.400000
 20
37.700000
 40
0.000000
 41
0.000000
 42
1.000000
  0
VERTEX
  8
PG_SOLDERMASK_TOP
 10
90.599986
 20
37.700018
 40
0.000000
 41
0.000000
 42
1.000000
  0
SEQEND
  0
POLYLINE
  8
PG_SOLDERMASK_TOP
 66
1
 70
1
 40
0.000000
 41
0.000000
 39
0.000000
  0
VERTEX
  8
PG_SOLDERMASK_TOP
 10
80.000000
 20
37.700000
 40
0.000000
 41
0.000000
 42
1.000000
  0
VERTEX
  8
PG_SOLDERMASK_TOP
 10
79.199986
 20
37.700018
 40
0.000000
 41
0.000000
 42
1.000000
  0
SEQEND
  0
TEXT
  8
RD_SILKSCREEN_TOP
 10
83.750000
 20
41.250000
 11
0.000000
 21
0.000000
 40
0.800000
 41
1.250000
 50
0.000000
  7
STANDARD
 71
0
 72
0
  1
L05
 73
0
  0
POLYLINE
  8
PIN_TOP
 66
1
 70
1
 40
0.000000
 41
0.000000
 39
0.000000
  0
VERTEX
  8
PIN_TOP
 10
85.100000
 20
10.085000
 40
0.000000
 41
0.000000
 42
0.000000
  0
VERTEX
  8
PIN_TOP
 10
83.400000
 20
10.085000
 40
0.000000
 41
0.000000
 42
0.000000
  0
VERTEX
  8
PIN_TOP
 10
83.400000
 20
9.515000
 40
0.000000
 41
0.000000
 42
0.000000
  0
VERTEX
  8
PIN_TOP
 10
82.600000
 20
9.515000
 40
0.000000
 41
0.000000
 42
0.000000
  0
VERTEX
  8
PIN_TOP
 10
82.600000
 20
10.085000
 40
0.000000
 41
0.000000
 42
0.000000
  0
VERTEX
  8
PIN_TOP
 10
83.000000
 20
10.085000
 40
0.000000
 41
0.000000
 42
0.000000
  0
VERTEX
  8
PIN_TOP
 10
83.000000
 20
14.515000
 40
0.000000
 41
0.000000
 42
0.000000
  0
VERTEX
  8
PIN_TOP
 10
82.600000
 20
14.515000
 40
0.000000
 41
0.000000
 42
0.000000
  0
VERTEX
  8
PIN_TOP
 10
82.600000
 20
15.085000
 40
0.000000
 41
0.000000
 42
0.000000
  0
VERTEX
  8
PIN_TOP
 10
83.400000
 20
15.085000
 40
0.000000
 41
0.000000
 42
0.000000
  0
VERTEX
  8
PIN_TOP
 10
83.400000
 20
14.515000
 40
0.000000
 41
0.000000
 42
0.000000
  0
VERTEX
  8
PIN_TOP
 10
85.100000
 20
14.515000
 40
0.000000
 41
0.000000
 42
0.000000
  0
VERTEX
  8
PIN_TOP
 10
85.100000
 20
12.300000
 40
0.000000
 41
0.000000
 42
0.000000
  0
SEQEND
  0
POLYLINE
  8
PIN_SOLDERMASK_TOP
 66
1
 70
1
 40
0.000000
 41
0.000000
 39
0.000000
  0
VERTEX
  8
PIN_SOLDERMASK_TOP
 10
85.100000
 20
10.085000
 40
0.000000
 41
0.000000
 42
0.000000
  0
VERTEX
  8
PIN_SOLDERMASK_TOP
 10
83.400000
 20
10.085000
 40
0.000000
 41
0.000000
 42
0.000000
  0
VERTEX
  8
PIN_SOLDERMASK_TOP
 10
83.400000
 20
9.515000
 40
0.000000
 41
0.000000
 42
0.000000
  0
VERTEX
  8
PIN_SOLDERMASK_TOP
 10
82.600000
 20
9.515000
 40
0.000000
 41
0.000000
 42
0.000000
  0
VERTEX
  8
PIN_SOLDERMASK_TOP
 10
82.600000
 20
10.085000
 40
0.000000
 41
0.000000
 42
0.000000
  0
VERTEX
  8
PIN_SOLDERMASK_TOP
 10
83.000000
 20
10.085000
 40
0.000000
 41
0.000000
 42
0.000000
  0
VERTEX
  8
PIN_SOLDERMASK_TOP
 10
83.000000
 20
14.515000
 40
0.000000
 41
0.000000
 42
0.000000
  0
VERTEX
  8
PIN_SOLDERMASK_TOP
 10
82.600000
 20
14.515000
 40
0.000000
 41
0.000000
 42
0.000000
  0
VERTEX
  8
PIN_SOLDERMASK_TOP
 10
82.600000
 20
15.085000
 40
0.000000
 41
0.000000
 42
0.000000
  0
VERTEX
  8
PIN_SOLDERMASK_TOP
 10
83.400000
 20
15.085000
 40
0.000000
 41
0.000000
 42
0.000000
  0
VERTEX
  8
PIN_SOLDERMASK_TOP
 10
83.400000
 20
14.515000
 40
0.000000
 41
0.000000
 42
0.000000
  0
VERTEX
  8
PIN_SOLDERMASK_TOP
 10
85.100000
 20
14.515000
 40
0.000000
 41
0.000000
 42
0.000000
  0
VERTEX
  8
PIN_SOLDERMASK_TOP
 10
85.100000
 20
12.300000
 40
0.000000
 41
0.000000
 42
0.000000
  0
SEQEND
  0
POLYLINE
  8
PIN_TOP
 66
1
 70
1
 40
0.000000
 41
0.000000
 39
0.000000
  0
VERTEX
  8
PIN_TOP
 10
85.500000
 20
14.515000
 40
0.000000
 41
0.000000
 42
0.000000
  0
VERTEX
  8
PIN_TOP
 10
87.200000
 20
14.515000
 40
0.000000
 41
0.000000
 42
0.000000
  0
VERTEX
  8
PIN_TOP
 10
87.200000
 20
15.085000
 40
0.000000
 41
0.000000
 42
0.000000
  0
VERTEX
  8
PIN_TOP
 10
88.000000
 20
15.085000
 40
0.000000
 41
0.000000
 42
0.000000
  0
VERTEX
  8
PIN_TOP
 10
88.000000
 20
14.515000
 40
0.000000
 41
0.000000
 42
0.000000
  0
VERTEX
  8
PIN_TOP
 10
87.600000
 20
14.515000
 40
0.000000
 41
0.000000
 42
0.000000
  0
VERTEX
  8
PIN_TOP
 10
87.600000
 20
10.085000
 40
0.000000
 41
0.000000
 42
0.000000
  0
VERTEX
  8
PIN_TOP
 10
88.000000
 20
10.085000
 40
0.000000
 41
0.000000
 42
0.000000
  0
VERTEX
  8
PIN_TOP
 10
88.000000
 20
9.515000
 40
0.000000
 41
0.000000
 42
0.000000
  0
VERTEX
  8
PIN_TOP
 10
87.200000
 20
9.515000
 40
0.000000
 41
0.000000
 42
0.000000
  0
VERTEX
  8
PIN_TOP
 10
87.200000
 20
10.085000
 40
0.000000
 41
0.000000
 42
0.000000
  0
VERTEX
  8
PIN_TOP
 10
85.500000
 20
10.085000
 40
0.000000
 41
0.000000
 42
0.000000
  0
VERTEX
  8
PIN_TOP
 10
85.500000
 20
12.300000
 40
0.000000
 41
0.000000
 42
0.000000
  0
SEQEND
  0
POLYLINE
  8
PIN_SOLDERMASK_TOP
 66
1
 70
1
 40
0.000000
 41
0.000000
 39
0.000000
  0
VERTEX
  8
PIN_SOLDERMASK_TOP
 10
85.500000
 20
14.515000
 40
0.000000
 41
0.000000
 42
0.000000
  0
VERTEX
  8
PIN_SOLDERMASK_TOP
 10
87.200000
 20
14.515000
 40
0.000000
 41
0.000000
 42
0.000000
  0
VERTEX
  8
PIN_SOLDERMASK_TOP
 10
87.200000
 20
15.085000
 40
0.000000
 41
0.000000
 42
0.000000
  0
VERTEX
  8
PIN_SOLDERMASK_TOP
 10
88.000000
 20
15.085000
 40
0.000000
 41
0.000000
 42
0.000000
  0
VERTEX
  8
PIN_SOLDERMASK_TOP
 10
88.000000
 20
14.515000
 40
0.000000
 41
0.000000
 42
0.000000
  0
VERTEX
  8
PIN_SOLDERMASK_TOP
 10
87.600000
 20
14.515000
 40
0.000000
 41
0.000000
 42
0.000000
  0
VERTEX
  8
PIN_SOLDERMASK_TOP
 10
87.600000
 20
10.085000
 40
0.000000
 41
0.000000
 42
0.000000
  0
VERTEX
  8
PIN_SOLDERMASK_TOP
 10
88.000000
 20
10.085000
 40
0.000000
 41
0.000000
 42
0.000000
  0
VERTEX
  8
PIN_SOLDERMASK_TOP
 10
88.000000
 20
9.515000
 40
0.000000
 41
0.000000
 42
0.000000
  0
VERTEX
  8
PIN_SOLDERMASK_TOP
 10
87.200000
 20
9.515000
 40
0.000000
 41
0.000000
 42
0.000000
  0
VERTEX
  8
PIN_SOLDERMASK_TOP
 10
87.200000
 20
10.085000
 40
0.000000
 41
0.000000
 42
0.000000
  0
VERTEX
  8
PIN_SOLDERMASK_TOP
 10
85.500000
 20
10.085000
 40
0.000000
 41
0.000000
 42
0.000000
  0
VERTEX
  8
PIN_SOLDERMASK_TOP
 10
85.500000
 20
12.300000
 40
0.000000
 41
0.000000
 42
0.000000
  0
SEQEND
  0
POLYLINE
  8
PG_SOLDERMASK_TOP
 66
1
 70
1
 40
0.000000
 41
0.000000
 39
0.000000
  0
VERTEX
  8
PG_SOLDERMASK_TOP
 10
91.400000
 20
12.300000
 40
0.000000
 41
0.000000
 42
1.000000
  0
VERTEX
  8
PG_SOLDERMASK_TOP
 10
90.599986
 20
12.300018
 40
0.000000
 41
0.000000
 42
1.000000
  0
SEQEND
  0
POLYLINE
  8
PG_SOLDERMASK_TOP
 66
1
 70
1
 40
0.000000
 41
0.000000
 39
0.000000
  0
VERTEX
  8
PG_SOLDERMASK_TOP
 10
80.000000
 20
12.300000
 40
0.000000
 41
0.000000
 42
1.000000
  0
VERTEX
  8
PG_SOLDERMASK_TOP
 10
79.199986
 20
12.300018
 40
0.000000
 41
0.000000
 42
1.000000
  0
SEQEND
  0
TEXT
  8
RD_SILKSCREEN_TOP
 10
83.750000
 20
15.750000
 11
0.000000
 21
0.000000
 40
0.800000
 41
1.250000
 50
0.000000
  7
STANDARD
 71
0
 72
0
  1
L06
 73
0
  0
POLYLINE
  8
PIN_TOP
 66
1
 70
1
 40
0.000000
 41
0.000000
 39
0.000000
  0
VERTEX
  8
PIN_TOP
 10
110.500000
 20
35.485000
 40
0.000000
 41
0.000000
 42
0.000000
  0
VERTEX
  8
PIN_TOP
 10
108.800000
 20
35.485000
 40
0.000000
 41
0.000000
 42
0.000000
  0
VERTEX
  8
PIN_TOP
 10
108.800000
 20
34.915000
 40
0.000000
 41
0.000000
 42
0.000000
  0
VERTEX
  8
PIN_TOP
 10
108.000000
 20
34.915000
 40
0.000000
 41
0.000000
 42
0.000000
  0
VERTEX
  8
PIN_TOP
 10
108.000000
 20
35.485000
 40
0.000000
 41
0.000000
 42
0.000000
  0
VERTEX
  8
PIN_TOP
 10
108.400000
 20
35.485000
 40
0.000000
 41
0.000000
 42
0.000000
  0
VERTEX
  8
PIN_TOP
 10
108.400000
 20
39.915000
 40
0.000000
 41
0.000000
 42
0.000000
  0
VERTEX
  8
PIN_TOP
 10
108.000000
 20
39.915000
 40
0.000000
 41
0.000000
 42
0.000000
  0
VERTEX
  8
PIN_TOP
 10
108.000000
 20
40.485000
 40
0.000000
 41
0.000000
 42
0.000000
  0
VERTEX
  8
PIN_TOP
 10
108.800000
 20
40.485000
 40
0.000000
 41
0.000000
 42
0.000000
  0
VERTEX
  8
PIN_TOP
 10
108.800000
 20
39.915000
 40
0.000000
 41
0.000000
 42
0.000000
  0
VERTEX
  8
PIN_TOP
 10
110.500000
 20
39.915000
 40
0.000000
 41
0.000000
 42
0.000000
  0
VERTEX
  8
PIN_TOP
 10
110.500000
 20
37.700000
 40
0.000000
 41
0.000000
 42
0.000000
  0
SEQEND
  0
POLYLINE
  8
PIN_SOLDERMASK_TOP
 66
1
 70
1
 40
0.000000
 41
0.000000
 39
0.000000
  0
VERTEX
  8
PIN_SOLDERMASK_TOP
 10
110.500000
 20
35.485000
 40
0.000000
 41
0.000000
 42
0.000000
  0
VERTEX
  8
PIN_SOLDERMASK_TOP
 10
108.800000
 20
35.485000
 40
0.000000
 41
0.000000
 42
0.000000
  0
VERTEX
  8
PIN_SOLDERMASK_TOP
 10
108.800000
 20
34.915000
 40
0.000000
 41
0.000000
 42
0.000000
  0
VERTEX
  8
PIN_SOLDERMASK_TOP
 10
108.000000
 20
34.915000
 40
0.000000
 41
0.000000
 42
0.000000
  0
VERTEX
  8
PIN_SOLDERMASK_TOP
 10
108.000000
 20
35.485000
 40
0.000000
 41
0.000000
 42
0.000000
  0
VERTEX
  8
PIN_SOLDERMASK_TOP
 10
108.400000
 20
35.485000
 40
0.000000
 41
0.000000
 42
0.000000
  0
VERTEX
  8
PIN_SOLDERMASK_TOP
 10
108.400000
 20
39.915000
 40
0.000000
 41
0.000000
 42
0.000000
  0
VERTEX
  8
PIN_SOLDERMASK_TOP
 10
108.000000
 20
39.915000
 40
0.000000
 41
0.000000
 42
0.000000
  0
VERTEX
  8
PIN_SOLDERMASK_TOP
 10
108.000000
 20
40.485000
 40
0.000000
 41
0.000000
 42
0.000000
  0
VERTEX
  8
PIN_SOLDERMASK_TOP
 10
108.800000
 20
40.485000
 40
0.000000
 41
0.000000
 42
0.000000
  0
VERTEX
  8
PIN_SOLDERMASK_TOP
 10
108.800000
 20
39.915000
 40
0.000000
 41
0.000000
 42
0.000000
  0
VERTEX
  8
PIN_SOLDERMASK_TOP
 10
110.500000
 20
39.915000
 40
0.000000
 41
0.000000
 42
0.000000
  0
VERTEX
  8
PIN_SOLDERMASK_TOP
 10
110.500000
 20
37.700000
 40
0.000000
 41
0.000000
 42
0.000000
  0
SEQEND
  0
POLYLINE
  8
PIN_TOP
 66
1
 70
1
 40
0.000000
 41
0.000000
 39
0.000000
  0
VERTEX
  8
PIN_TOP
 10
110.900000
 20
39.915000
 40
0.000000
 41
0.000000
 42
0.000000
  0
VERTEX
  8
PIN_TOP
 10
112.600000
 20
39.915000
 40
0.000000
 41
0.000000
 42
0.000000
  0
VERTEX
  8
PIN_TOP
 10
112.600000
 20
40.485000
 40
0.000000
 41
0.000000
 42
0.000000
  0
VERTEX
  8
PIN_TOP
 10
113.400000
 20
40.485000
 40
0.000000
 41
0.000000
 42
0.000000
  0
VERTEX
  8
PIN_TOP
 10
113.400000
 20
39.915000
 40
0.000000
 41
0.000000
 42
0.000000
  0
VERTEX
  8
PIN_TOP
 10
113.000000
 20
39.915000
 40
0.000000
 41
0.000000
 42
0.000000
  0
VERTEX
  8
PIN_TOP
 10
113.000000
 20
35.485000
 40
0.000000
 41
0.000000
 42
0.000000
  0
VERTEX
  8
PIN_TOP
 10
113.400000
 20
35.485000
 40
0.000000
 41
0.000000
 42
0.000000
  0
VERTEX
  8
PIN_TOP
 10
113.400000
 20
34.915000
 40
0.000000
 41
0.000000
 42
0.000000
  0
VERTEX
  8
PIN_TOP
 10
112.600000
 20
34.915000
 40
0.000000
 41
0.000000
 42
0.000000
  0
VERTEX
  8
PIN_TOP
 10
112.600000
 20
35.485000
 40
0.000000
 41
0.000000
 42
0.000000
  0
VERTEX
  8
PIN_TOP
 10
110.900000
 20
35.485000
 40
0.000000
 41
0.000000
 42
0.000000
  0
VERTEX
  8
PIN_TOP
 10
110.900000
 20
37.700000
 40
0.000000
 41
0.000000
 42
0.000000
  0
SEQEND
  0
POLYLINE
  8
PIN_SOLDERMASK_TOP
 66
1
 70
1
 40
0.000000
 41
0.000000
 39
0.000000
  0
VERTEX
  8
PIN_SOLDERMASK_TOP
 10
110.900000
 20
39.915000
 40
0.000000
 41
0.000000
 42
0.000000
  0
VERTEX
  8
PIN_SOLDERMASK_TOP
 10
112.600000
 20
39.915000
 40
0.000000
 41
0.000000
 42
0.000000
  0
VERTEX
  8
PIN_SOLDERMASK_TOP
 10
112.600000
 20
40.485000
 40
0.000000
 41
0.000000
 42
0.000000
  0
VERTEX
  8
PIN_SOLDERMASK_TOP
 10
113.400000
 20
40.485000
 40
0.000000
 41
0.000000
 42
0.000000
  0
VERTEX
  8
PIN_SOLDERMASK_TOP
 10
113.400000
 20
39.915000
 40
0.000000
 41
0.000000
 42
0.000000
  0
VERTEX
  8
PIN_SOLDERMASK_TOP
 10
113.000000
 20
39.915000
 40
0.000000
 41
0.000000
 42
0.000000
  0
VERTEX
  8
PIN_SOLDERMASK_TOP
 10
113.000000
 20
35.485000
 40
0.000000
 41
0.000000
 42
0.000000
  0
VERTEX
  8
PIN_SOLDERMASK_TOP
 10
113.400000
 20
35.485000
 40
0.000000
 41
0.000000
 42
0.000000
  0
VERTEX
  8
PIN_SOLDERMASK_TOP
 10
113.400000
 20
34.915000
 40
0.000000
 41
0.000000
 42
0.000000
  0
VERTEX
  8
PIN_SOLDERMASK_TOP
 10
112.600000
 20
34.915000
 40
0.000000
 41
0.000000
 42
0.000000
  0
VERTEX
  8
PIN_SOLDERMASK_TOP
 10
112.600000
 20
35.485000
 40
0.000000
 41
0.000000
 42
0.000000
  0
VERTEX
  8
PIN_SOLDERMASK_TOP
 10
110.900000
 20
35.485000
 40
0.000000
 41
0.000000
 42
0.000000
  0
VERTEX
  8
PIN_SOLDERMASK_TOP
 10
110.900000
 20
37.700000
 40
0.000000
 41
0.000000
 42
0.000000
  0
SEQEND
  0
POLYLINE
  8
PG_SOLDERMASK_TOP
 66
1
 70
1
 40
0.000000
 41
0.000000
 39
0.000000
  0
VERTEX
  8
PG_SOLDERMASK_TOP
 10
116.800000
 20
37.700000
 40
0.000000
 41
0.000000
 42
1.000000
  0
VERTEX
  8
PG_SOLDERMASK_TOP
 10
115.999986
 20
37.700018
 40
0.000000
 41
0.000000
 42
1.000000
  0
SEQEND
  0
POLYLINE
  8
PG_SOLDERMASK_TOP
 66
1
 70
1
 40
0.000000
 41
0.000000
 39
0.000000
  0
VERTEX
  8
PG_SOLDERMASK_TOP
 10
105.400000
 20
37.700000
 40
0.000000
 41
0.000000
 42
1.000000
  0
VERTEX
  8
PG_SOLDERMASK_TOP
 10
104.599986
 20
37.700018
 40
0.000000
 41
0.000000
 42
1.000000
  0
SEQEND
  0
TEXT
  8
RD_SILKSCREEN_TOP
 10
109.250000
 20
41.250000
 11
0.000000
 21
0.000000
 40
0.800000
 41
1.250000
 50
0.000000
  7
STANDARD
 71
0
 72
0
  1
L07
 73
0
  0
POLYLINE
  8
PIN_TOP
 66
1
 70
1
 40
0.000000
 41
0.000000
 39
0.000000
  0
VERTEX
  8
PIN_TOP
 10
110.500000
 20
10.085000
 40
0.000000
 41
0.000000
 42
0.000000
  0
VERTEX
  8
PIN_TOP
 10
108.800000
 20
10.085000
 40
0.000000
 41
0.000000
 42
0.000000
  0
VERTEX
  8
PIN_TOP
 10
108.800000
 20
9.515000
 40
0.000000
 41
0.000000
 42
0.000000
  0
VERTEX
  8
PIN_TOP
 10
108.000000
 20
9.515000
 40
0.000000
 41
0.000000
 42
0.000000
  0
VERTEX
  8
PIN_TOP
 10
108.000000
 20
10.085000
 40
0.000000
 41
0.000000
 42
0.000000
  0
VERTEX
  8
PIN_TOP
 10
108.400000
 20
10.085000
 40
0.000000
 41
0.000000
 42
0.000000
  0
VERTEX
  8
PIN_TOP
 10
108.400000
 20
14.515000
 40
0.000000
 41
0.000000
 42
0.000000
  0
VERTEX
  8
PIN_TOP
 10
108.000000
 20
14.515000
 40
0.000000
 41
0.000000
 42
0.000000
  0
VERTEX
  8
PIN_TOP
 10
108.000000
 20
15.085000
 40
0.000000
 41
0.000000
 42
0.000000
  0
VERTEX
  8
PIN_TOP
 10
108.800000
 20
15.085000
 40
0.000000
 41
0.000000
 42
0.000000
  0
VERTEX
  8
PIN_TOP
 10
108.800000
 20
14.515000
 40
0.000000
 41
0.000000
 42
0.000000
  0
VERTEX
  8
PIN_TOP
 10
110.500000
 20
14.515000
 40
0.000000
 41
0.000000
 42
0.000000
  0
VERTEX
  8
PIN_TOP
 10
110.500000
 20
12.300000
 40
0.000000
 41
0.000000
 42
0.000000
  0
SEQEND
  0
POLYLINE
  8
PIN_SOLDERMASK_TOP
 66
1
 70
1
 40
0.000000
 41
0.000000
 39
0.000000
  0
VERTEX
  8
PIN_SOLDERMASK_TOP
 10
110.500000
 20
10.085000
 40
0.000000
 41
0.000000
 42
0.000000
  0
VERTEX
  8
PIN_SOLDERMASK_TOP
 10
108.800000
 20
10.085000
 40
0.000000
 41
0.000000
 42
0.000000
  0
VERTEX
  8
PIN_SOLDERMASK_TOP
 10
108.800000
 20
9.515000
 40
0.000000
 41
0.000000
 42
0.000000
  0
VERTEX
  8
PIN_SOLDERMASK_TOP
 10
108.000000
 20
9.515000
 40
0.000000
 41
0.000000
 42
0.000000
  0
VERTEX
  8
PIN_SOLDERMASK_TOP
 10
108.000000
 20
10.085000
 40
0.000000
 41
0.000000
 42
0.000000
  0
VERTEX
  8
PIN_SOLDERMASK_TOP
 10
108.400000
 20
10.085000
 40
0.000000
 41
0.000000
 42
0.000000
  0
VERTEX
  8
PIN_SOLDERMASK_TOP
 10
108.400000
 20
14.515000
 40
0.000000
 41
0.000000
 42
0.000000
  0
VERTEX
  8
PIN_SOLDERMASK_TOP
 10
108.000000
 20
14.515000
 40
0.000000
 41
0.000000
 42
0.000000
  0
VERTEX
  8
PIN_SOLDERMASK_TOP
 10
108.000000
 20
15.085000
 40
0.000000
 41
0.000000
 42
0.000000
  0
VERTEX
  8
PIN_SOLDERMASK_TOP
 10
108.800000
 20
15.085000
 40
0.000000
 41
0.000000
 42
0.000000
  0
VERTEX
  8
PIN_SOLDERMASK_TOP
 10
108.800000
 20
14.515000
 40
0.000000
 41
0.000000
 42
0.000000
  0
VERTEX
  8
PIN_SOLDERMASK_TOP
 10
110.500000
 20
14.515000
 40
0.000000
 41
0.000000
 42
0.000000
  0
VERTEX
  8
PIN_SOLDERMASK_TOP
 10
110.500000
 20
12.300000
 40
0.000000
 41
0.000000
 42
0.000000
  0
SEQEND
  0
POLYLINE
  8
PIN_TOP
 66
1
 70
1
 40
0.000000
 41
0.000000
 39
0.000000
  0
VERTEX
  8
PIN_TOP
 10
110.900000
 20
14.515000
 40
0.000000
 41
0.000000
 42
0.000000
  0
VERTEX
  8
PIN_TOP
 10
112.600000
 20
14.515000
 40
0.000000
 41
0.000000
 42
0.000000
  0
VERTEX
  8
PIN_TOP
 10
112.600000
 20
15.085000
 40
0.000000
 41
0.000000
 42
0.000000
  0
VERTEX
  8
PIN_TOP
 10
113.400000
 20
15.085000
 40
0.000000
 41
0.000000
 42
0.000000
  0
VERTEX
  8
PIN_TOP
 10
113.400000
 20
14.515000
 40
0.000000
 41
0.000000
 42
0.000000
  0
VERTEX
  8
PIN_TOP
 10
113.000000
 20
14.515000
 40
0.000000
 41
0.000000
 42
0.000000
  0
VERTEX
  8
PIN_TOP
 10
113.000000
 20
10.085000
 40
0.000000
 41
0.000000
 42
0.000000
  0
VERTEX
  8
PIN_TOP
 10
113.400000
 20
10.085000
 40
0.000000
 41
0.000000
 42
0.000000
  0
VERTEX
  8
PIN_TOP
 10
113.400000
 20
9.515000
 40
0.000000
 41
0.000000
 42
0.000000
  0
VERTEX
  8
PIN_TOP
 10
112.600000
 20
9.515000
 40
0.000000
 41
0.000000
 42
0.000000
  0
VERTEX
  8
PIN_TOP
 10
112.600000
 20
10.085000
 40
0.000000
 41
0.000000
 42
0.000000
  0
VERTEX
  8
PIN_TOP
 10
110.900000
 20
10.085000
 40
0.000000
 41
0.000000
 42
0.000000
  0
VERTEX
  8
PIN_TOP
 10
110.900000
 20
12.300000
 40
0.000000
 41
0.000000
 42
0.000000
  0
SEQEND
  0
POLYLINE
  8
PIN_SOLDERMASK_TOP
 66
1
 70
1
 40
0.000000
 41
0.000000
 39
0.000000
  0
VERTEX
  8
PIN_SOLDERMASK_TOP
 10
110.900000
 20
14.515000
 40
0.000000
 41
0.000000
 42
0.000000
  0
VERTEX
  8
PIN_SOLDERMASK_TOP
 10
112.600000
 20
14.515000
 40
0.000000
 41
0.000000
 42
0.000000
  0
VERTEX
  8
PIN_SOLDERMASK_TOP
 10
112.600000
 20
15.085000
 40
0.000000
 41
0.000000
 42
0.000000
  0
VERTEX
  8
PIN_SOLDERMASK_TOP
 10
113.400000
 20
15.085000
 40
0.000000
 41
0.000000
 42
0.000000
  0
VERTEX
  8
PIN_SOLDERMASK_TOP
 10
113.400000
 20
14.515000
 40
0.000000
 41
0.000000
 42
0.000000
  0
VERTEX
  8
PIN_SOLDERMASK_TOP
 10
113.000000
 20
14.515000
 40
0.000000
 41
0.000000
 42
0.000000
  0
VERTEX
  8
PIN_SOLDERMASK_TOP
 10
113.000000
 20
10.085000
 40
0.000000
 41
0.000000
 42
0.000000
  0
VERTEX
  8
PIN_SOLDERMASK_TOP
 10
113.400000
 20
10.085000
 40
0.000000
 41
0.000000
 42
0.000000
  0
VERTEX
  8
PIN_SOLDERMASK_TOP
 10
113.400000
 20
9.515000
 40
0.000000
 41
0.000000
 42
0.000000
  0
VERTEX
  8
PIN_SOLDERMASK_TOP
 10
112.600000
 20
9.515000
 40
0.000000
 41
0.000000
 42
0.000000
  0
VERTEX
  8
PIN_SOLDERMASK_TOP
 10
112.600000
 20
10.085000
 40
0.000000
 41
0.000000
 42
0.000000
  0
VERTEX
  8
PIN_SOLDERMASK_TOP
 10
110.900000
 20
10.085000
 40
0.000000
 41
0.000000
 42
0.000000
  0
VERTEX
  8
PIN_SOLDERMASK_TOP
 10
110.900000
 20
12.300000
 40
0.000000
 41
0.000000
 42
0.000000
  0
SEQEND
  0
POLYLINE
  8
PG_SOLDERMASK_TOP
 66
1
 70
1
 40
0.000000
 41
0.000000
 39
0.000000
  0
VERTEX
  8
PG_SOLDERMASK_TOP
 10
116.800000
 20
12.300000
 40
0.000000
 41
0.000000
 42
1.000000
  0
VERTEX
  8
PG_SOLDERMASK_TOP
 10
115.999986
 20
12.300018
 40
0.000000
 41
0.000000
 42
1.000000
  0
SEQEND
  0
POLYLINE
  8
PG_SOLDERMASK_TOP
 66
1
 70
1
 40
0.000000
 41
0.000000
 39
0.000000
  0
VERTEX
  8
PG_SOLDERMASK_TOP
 10
105.400000
 20
12.300000
 40
0.000000
 41
0.000000
 42
1.000000
  0
VERTEX
  8
PG_SOLDERMASK_TOP
 10
104.599986
 20
12.300018
 40
0.000000
 41
0.000000
 42
1.000000
  0
SEQEND
  0
TEXT
  8
RD_SILKSCREEN_TOP
 10
109.250000
 20
15.750000
 11
0.000000
 21
0.000000
 40
0.800000
 41
1.250000
 50
0.000000
  7
STANDARD
 71
0
 72
0
  1
L08
 73
0
  0
POLYLINE
  8
PIN_TOP
 66
1
 70
1
 40
0.000000
 41
0.000000
 39
0.000000
  0
VERTEX
  8
PIN_TOP
 10
135.900000
 20
35.485000
 40
0.000000
 41
0.000000
 42
0.000000
  0
VERTEX
  8
PIN_TOP
 10
134.200000
 20
35.485000
 40
0.000000
 41
0.000000
 42
0.000000
  0
VERTEX
  8
PIN_TOP
 10
134.200000
 20
34.915000
 40
0.000000
 41
0.000000
 42
0.000000
  0
VERTEX
  8
PIN_TOP
 10
133.400000
 20
34.915000
 40
0.000000
 41
0.000000
 42
0.000000
  0
VERTEX
  8
PIN_TOP
 10
133.400000
 20
35.485000
 40
0.000000
 41
0.000000
 42
0.000000
  0
VERTEX
  8
PIN_TOP
 10
133.800000
 20
35.485000
 40
0.000000
 41
0.000000
 42
0.000000
  0
VERTEX
  8
PIN_TOP
 10
133.800000
 20
39.915000
 40
0.000000
 41
0.000000
 42
0.000000
  0
VERTEX
  8
PIN_TOP
 10
133.400000
 20
39.915000
 40
0.000000
 41
0.000000
 42
0.000000
  0
VERTEX
  8
PIN_TOP
 10
133.400000
 20
40.485000
 40
0.000000
 41
0.000000
 42
0.000000
  0
VERTEX
  8
PIN_TOP
 10
134.200000
 20
40.485000
 40
0.000000
 41
0.000000
 42
0.000000
  0
VERTEX
  8
PIN_TOP
 10
134.200000
 20
39.915000
 40
0.000000
 41
0.000000
 42
0.000000
  0
VERTEX
  8
PIN_TOP
 10
135.900000
 20
39.915000
 40
0.000000
 41
0.000000
 42
0.000000
  0
VERTEX
  8
PIN_TOP
 10
135.900000
 20
37.700000
 40
0.000000
 41
0.000000
 42
0.000000
  0
SEQEND
  0
POLYLINE
  8
PIN_SOLDERMASK_TOP
 66
1
 70
1
 40
0.000000
 41
0.000000
 39
0.000000
  0
VERTEX
  8
PIN_SOLDERMASK_TOP
 10
135.900000
 20
35.485000
 40
0.000000
 41
0.000000
 42
0.000000
  0
VERTEX
  8
PIN_SOLDERMASK_TOP
 10
134.200000
 20
35.485000
 40
0.000000
 41
0.000000
 42
0.000000
  0
VERTEX
  8
PIN_SOLDERMASK_TOP
 10
134.200000
 20
34.915000
 40
0.000000
 41
0.000000
 42
0.000000
  0
VERTEX
  8
PIN_SOLDERMASK_TOP
 10
133.400000
 20
34.915000
 40
0.000000
 41
0.000000
 42
0.000000
  0
VERTEX
  8
PIN_SOLDERMASK_TOP
 10
133.400000
 20
35.485000
 40
0.000000
 41
0.000000
 42
0.000000
  0
VERTEX
  8
PIN_SOLDERMASK_TOP
 10
133.800000
 20
35.485000
 40
0.000000
 41
0.000000
 42
0.000000
  0
VERTEX
  8
PIN_SOLDERMASK_TOP
 10
133.800000
 20
39.915000
 40
0.000000
 41
0.000000
 42
0.000000
  0
VERTEX
  8
PIN_SOLDERMASK_TOP
 10
133.400000
 20
39.915000
 40
0.000000
 41
0.000000
 42
0.000000
  0
VERTEX
  8
PIN_SOLDERMASK_TOP
 10
133.400000
 20
40.485000
 40
0.000000
 41
0.000000
 42
0.000000
  0
VERTEX
  8
PIN_SOLDERMASK_TOP
 10
134.200000
 20
40.485000
 40
0.000000
 41
0.000000
 42
0.000000
  0
VERTEX
  8
PIN_SOLDERMASK_TOP
 10
134.200000
 20
39.915000
 40
0.000000
 41
0.000000
 42
0.000000
  0
VERTEX
  8
PIN_SOLDERMASK_TOP
 10
135.900000
 20
39.915000
 40
0.000000
 41
0.000000
 42
0.000000
  0
VERTEX
  8
PIN_SOLDERMASK_TOP
 10
135.900000
 20
37.700000
 40
0.000000
 41
0.000000
 42
0.000000
  0
SEQEND
  0
POLYLINE
  8
PIN_TOP
 66
1
 70
1
 40
0.000000
 41
0.000000
 39
0.000000
  0
VERTEX
  8
PIN_TOP
 10
136.300000
 20
39.915000
 40
0.000000
 41
0.000000
 42
0.000000
  0
VERTEX
  8
PIN_TOP
 10
138.000000
 20
39.915000
 40
0.000000
 41
0.000000
 42
0.000000
  0
VERTEX
  8
PIN_TOP
 10
138.000000
 20
40.485000
 40
0.000000
 41
0.000000
 42
0.000000
  0
VERTEX
  8
PIN_TOP
 10
138.800000
 20
40.485000
 40
0.000000
 41
0.000000
 42
0.000000
  0
VERTEX
  8
PIN_TOP
 10
138.800000
 20
39.915000
 40
0.000000
 41
0.000000
 42
0.000000
  0
VERTEX
  8
PIN_TOP
 10
138.400000
 20
39.915000
 40
0.000000
 41
0.000000
 42
0.000000
  0
VERTEX
  8
PIN_TOP
 10
138.400000
 20
35.485000
 40
0.000000
 41
0.000000
 42
0.000000
  0
VERTEX
  8
PIN_TOP
 10
138.800000
 20
35.485000
 40
0.000000
 41
0.000000
 42
0.000000
  0
VERTEX
  8
PIN_TOP
 10
138.800000
 20
34.915000
 40
0.000000
 41
0.000000
 42
0.000000
  0
VERTEX
  8
PIN_TOP
 10
138.000000
 20
34.915000
 40
0.000000
 41
0.000000
 42
0.000000
  0
VERTEX
  8
PIN_TOP
 10
138.000000
 20
35.485000
 40
0.000000
 41
0.000000
 42
0.000000
  0
VERTEX
  8
PIN_TOP
 10
136.300000
 20
35.485000
 40
0.000000
 41
0.000000
 42
0.000000
  0
VERTEX
  8
PIN_TOP
 10
136.300000
 20
37.700000
 40
0.000000
 41
0.000000
 42
0.000000
  0
SEQEND
  0
POLYLINE
  8
PIN_SOLDERMASK_TOP
 66
1
 70
1
 40
0.000000
 41
0.000000
 39
0.000000
  0
VERTEX
  8
PIN_SOLDERMASK_TOP
 10
136.300000
 20
39.915000
 40
0.000000
 41
0.000000
 42
0.000000
  0
VERTEX
  8
PIN_SOLDERMASK_TOP
 10
138.000000
 20
39.915000
 40
0.000000
 41
0.000000
 42
0.000000
  0
VERTEX
  8
PIN_SOLDERMASK_TOP
 10
138.000000
 20
40.485000
 40
0.000000
 41
0.000000
 42
0.000000
  0
VERTEX
  8
PIN_SOLDERMASK_TOP
 10
138.800000
 20
40.485000
 40
0.000000
 41
0.000000
 42
0.000000
  0
VERTEX
  8
PIN_SOLDERMASK_TOP
 10
138.800000
 20
39.915000
 40
0.000000
 41
0.000000
 42
0.000000
  0
VERTEX
  8
PIN_SOLDERMASK_TOP
 10
138.400000
 20
39.915000
 40
0.000000
 41
0.000000
 42
0.000000
  0
VERTEX
  8
PIN_SOLDERMASK_TOP
 10
138.400000
 20
35.485000
 40
0.000000
 41
0.000000
 42
0.000000
  0
VERTEX
  8
PIN_SOLDERMASK_TOP
 10
138.800000
 20
35.485000
 40
0.000000
 41
0.000000
 42
0.000000
  0
VERTEX
  8
PIN_SOLDERMASK_TOP
 10
138.800000
 20
34.915000
 40
0.000000
 41
0.000000
 42
0.000000
  0
VERTEX
  8
PIN_SOLDERMASK_TOP
 10
138.000000
 20
34.915000
 40
0.000000
 41
0.000000
 42
0.000000
  0
VERTEX
  8
PIN_SOLDERMASK_TOP
 10
138.000000
 20
35.485000
 40
0.000000
 41
0.000000
 42
0.000000
  0
VERTEX
  8
PIN_SOLDERMASK_TOP
 10
136.300000
 20
35.485000
 40
0.000000
 41
0.000000
 42
0.000000
  0
VERTEX
  8
PIN_SOLDERMASK_TOP
 10
136.300000
 20
37.700000
 40
0.000000
 41
0.000000
 42
0.000000
  0
SEQEND
  0
POLYLINE
  8
PG_SOLDERMASK_TOP
 66
1
 70
1
 40
0.000000
 41
0.000000
 39
0.000000
  0
VERTEX
  8
PG_SOLDERMASK_TOP
 10
142.200000
 20
37.700000
 40
0.000000
 41
0.000000
 42
1.000000
  0
VERTEX
  8
PG_SOLDERMASK_TOP
 10
141.399986
 20
37.700018
 40
0.000000
 41
0.000000
 42
1.000000
  0
SEQEND
  0
POLYLINE
  8
PG_SOLDERMASK_TOP
 66
1
 70
1
 40
0.000000
 41
0.000000
 39
0.000000
  0
VERTEX
  8
PG_SOLDERMASK_TOP
 10
130.800000
 20
37.700000
 40
0.000000
 41
0.000000
 42
1.000000
  0
VERTEX
  8
PG_SOLDERMASK_TOP
 10
129.999986
 20
37.700018
 40
0.000000
 41
0.000000
 42
1.000000
  0
SEQEND
  0
TEXT
  8
RD_SILKSCREEN_TOP
 10
134.500000
 20
41.250000
 11
0.000000
 21
0.000000
 40
0.800000
 41
1.250000
 50
0.000000
  7
STANDARD
 71
0
 72
0
  1
L09
 73
0
  0
POLYLINE
  8
PIN_TOP
 66
1
 70
1
 40
0.000000
 41
0.000000
 39
0.000000
  0
VERTEX
  8
PIN_TOP
 10
135.900000
 20
10.085000
 40
0.000000
 41
0.000000
 42
0.000000
  0
VERTEX
  8
PIN_TOP
 10
134.200000
 20
10.085000
 40
0.000000
 41
0.000000
 42
0.000000
  0
VERTEX
  8
PIN_TOP
 10
134.200000
 20
9.515000
 40
0.000000
 41
0.000000
 42
0.000000
  0
VERTEX
  8
PIN_TOP
 10
133.400000
 20
9.515000
 40
0.000000
 41
0.000000
 42
0.000000
  0
VERTEX
  8
PIN_TOP
 10
133.400000
 20
10.085000
 40
0.000000
 41
0.000000
 42
0.000000
  0
VERTEX
  8
PIN_TOP
 10
133.800000
 20
10.085000
 40
0.000000
 41
0.000000
 42
0.000000
  0
VERTEX
  8
PIN_TOP
 10
133.800000
 20
14.515000
 40
0.000000
 41
0.000000
 42
0.000000
  0
VERTEX
  8
PIN_TOP
 10
133.400000
 20
14.515000
 40
0.000000
 41
0.000000
 42
0.000000
  0
VERTEX
  8
PIN_TOP
 10
133.400000
 20
15.085000
 40
0.000000
 41
0.000000
 42
0.000000
  0
VERTEX
  8
PIN_TOP
 10
134.200000
 20
15.085000
 40
0.000000
 41
0.000000
 42
0.000000
  0
VERTEX
  8
PIN_TOP
 10
134.200000
 20
14.515000
 40
0.000000
 41
0.000000
 42
0.000000
  0
VERTEX
  8
PIN_TOP
 10
135.900000
 20
14.515000
 40
0.000000
 41
0.000000
 42
0.000000
  0
VERTEX
  8
PIN_TOP
 10
135.900000
 20
12.300000
 40
0.000000
 41
0.000000
 42
0.000000
  0
SEQEND
  0
POLYLINE
  8
PIN_SOLDERMASK_TOP
 66
1
 70
1
 40
0.000000
 41
0.000000
 39
0.000000
  0
VERTEX
  8
PIN_SOLDERMASK_TOP
 10
135.900000
 20
10.085000
 40
0.000000
 41
0.000000
 42
0.000000
  0
VERTEX
  8
PIN_SOLDERMASK_TOP
 10
134.200000
 20
10.085000
 40
0.000000
 41
0.000000
 42
0.000000
  0
VERTEX
  8
PIN_SOLDERMASK_TOP
 10
134.200000
 20
9.515000
 40
0.000000
 41
0.000000
 42
0.000000
  0
VERTEX
  8
PIN_SOLDERMASK_TOP
 10
133.400000
 20
9.515000
 40
0.000000
 41
0.000000
 42
0.000000
  0
VERTEX
  8
PIN_SOLDERMASK_TOP
 10
133.400000
 20
10.085000
 40
0.000000
 41
0.000000
 42
0.000000
  0
VERTEX
  8
PIN_SOLDERMASK_TOP
 10
133.800000
 20
10.085000
 40
0.000000
 41
0.000000
 42
0.000000
  0
VERTEX
  8
PIN_SOLDERMASK_TOP
 10
133.800000
 20
14.515000
 40
0.000000
 41
0.000000
 42
0.000000
  0
VERTEX
  8
PIN_SOLDERMASK_TOP
 10
133.400000
 20
14.515000
 40
0.000000
 41
0.000000
 42
0.000000
  0
VERTEX
  8
PIN_SOLDERMASK_TOP
 10
133.400000
 20
15.085000
 40
0.000000
 41
0.000000
 42
0.000000
  0
VERTEX
  8
PIN_SOLDERMASK_TOP
 10
134.200000
 20
15.085000
 40
0.000000
 41
0.000000
 42
0.000000
  0
VERTEX
  8
PIN_SOLDERMASK_TOP
 10
134.200000
 20
14.515000
 40
0.000000
 41
0.000000
 42
0.000000
  0
VERTEX
  8
PIN_SOLDERMASK_TOP
 10
135.900000
 20
14.515000
 40
0.000000
 41
0.000000
 42
0.000000
  0
VERTEX
  8
PIN_SOLDERMASK_TOP
 10
135.900000
 20
12.300000
 40
0.000000
 41
0.000000
 42
0.000000
  0
SEQEND
  0
POLYLINE
  8
PIN_TOP
 66
1
 70
1
 40
0.000000
 41
0.000000
 39
0.000000
  0
VERTEX
  8
PIN_TOP
 10
136.300000
 20
14.515000
 40
0.000000
 41
0.000000
 42
0.000000
  0
VERTEX
  8
PIN_TOP
 10
138.000000
 20
14.515000
 40
0.000000
 41
0.000000
 42
0.000000
  0
VERTEX
  8
PIN_TOP
 10
138.000000
 20
15.085000
 40
0.000000
 41
0.000000
 42
0.000000
  0
VERTEX
  8
PIN_TOP
 10
138.800000
 20
15.085000
 40
0.000000
 41
0.000000
 42
0.000000
  0
VERTEX
  8
PIN_TOP
 10
138.800000
 20
14.515000
 40
0.000000
 41
0.000000
 42
0.000000
  0
VERTEX
  8
PIN_TOP
 10
138.400000
 20
14.515000
 40
0.000000
 41
0.000000
 42
0.000000
  0
VERTEX
  8
PIN_TOP
 10
138.400000
 20
10.085000
 40
0.000000
 41
0.000000
 42
0.000000
  0
VERTEX
  8
PIN_TOP
 10
138.800000
 20
10.085000
 40
0.000000
 41
0.000000
 42
0.000000
  0
VERTEX
  8
PIN_TOP
 10
138.800000
 20
9.515000
 40
0.000000
 41
0.000000
 42
0.000000
  0
VERTEX
  8
PIN_TOP
 10
138.000000
 20
9.515000
 40
0.000000
 41
0.000000
 42
0.000000
  0
VERTEX
  8
PIN_TOP
 10
138.000000
 20
10.085000
 40
0.000000
 41
0.000000
 42
0.000000
  0
VERTEX
  8
PIN_TOP
 10
136.300000
 20
10.085000
 40
0.000000
 41
0.000000
 42
0.000000
  0
VERTEX
  8
PIN_TOP
 10
136.300000
 20
12.300000
 40
0.000000
 41
0.000000
 42
0.000000
  0
SEQEND
  0
POLYLINE
  8
PIN_SOLDERMASK_TOP
 66
1
 70
1
 40
0.000000
 41
0.000000
 39
0.000000
  0
VERTEX
  8
PIN_SOLDERMASK_TOP
 10
136.300000
 20
14.515000
 40
0.000000
 41
0.000000
 42
0.000000
  0
VERTEX
  8
PIN_SOLDERMASK_TOP
 10
138.000000
 20
14.515000
 40
0.000000
 41
0.000000
 42
0.000000
  0
VERTEX
  8
PIN_SOLDERMASK_TOP
 10
138.000000
 20
15.085000
 40
0.000000
 41
0.000000
 42
0.000000
  0
VERTEX
  8
PIN_SOLDERMASK_TOP
 10
138.800000
 20
15.085000
 40
0.000000
 41
0.000000
 42
0.000000
  0
VERTEX
  8
PIN_SOLDERMASK_TOP
 10
138.800000
 20
14.515000
 40
0.000000
 41
0.000000
 42
0.000000
  0
VERTEX
  8
PIN_SOLDERMASK_TOP
 10
138.400000
 20
14.515000
 40
0.000000
 41
0.000000
 42
0.000000
  0
VERTEX
  8
PIN_SOLDERMASK_TOP
 10
138.400000
 20
10.085000
 40
0.000000
 41
0.000000
 42
0.000000
  0
VERTEX
  8
PIN_SOLDERMASK_TOP
 10
138.800000
 20
10.085000
 40
0.000000
 41
0.000000
 42
0.000000
  0
VERTEX
  8
PIN_SOLDERMASK_TOP
 10
138.800000
 20
9.515000
 40
0.000000
 41
0.000000
 42
0.000000
  0
VERTEX
  8
PIN_SOLDERMASK_TOP
 10
138.000000
 20
9.515000
 40
0.000000
 41
0.000000
 42
0.000000
  0
VERTEX
  8
PIN_SOLDERMASK_TOP
 10
138.000000
 20
10.085000
 40
0.000000
 41
0.000000
 42
0.000000
  0
VERTEX
  8
PIN_SOLDERMASK_TOP
 10
136.300000
 20
10.085000
 40
0.000000
 41
0.000000
 42
0.000000
  0
VERTEX
  8
PIN_SOLDERMASK_TOP
 10
136.300000
 20
12.300000
 40
0.000000
 41
0.000000
 42
0.000000
  0
SEQEND
  0
POLYLINE
  8
PG_SOLDERMASK_TOP
 66
1
 70
1
 40
0.000000
 41
0.000000
 39
0.000000
  0
VERTEX
  8
PG_SOLDERMASK_TOP
 10
142.200000
 20
12.300000
 40
0.000000
 41
0.000000
 42
1.000000
  0
VERTEX
  8
PG_SOLDERMASK_TOP
 10
141.399986
 20
12.300018
 40
0.000000
 41
0.000000
 42
1.000000
  0
SEQEND
  0
POLYLINE
  8
PG_SOLDERMASK_TOP
 66
1
 70
1
 40
0.000000
 41
0.000000
 39
0.000000
  0
VERTEX
  8
PG_SOLDERMASK_TOP
 10
130.800000
 20
12.300000
 40
0.000000
 41
0.000000
 42
1.000000
  0
VERTEX
  8
PG_SOLDERMASK_TOP
 10
129.999986
 20
12.300018
 40
0.000000
 41
0.000000
 42
1.000000
  0
SEQEND
  0
TEXT
  8
RD_SILKSCREEN_TOP
 10
134.750000
 20
15.750000
 11
0.000000
 21
0.000000
 40
0.800000
 41
1.250000
 50
0.000000
  7
STANDARD
 71
0
 72
0
  1
L10
 73
0
  0
POLYLINE
  8
PIN_TOP
 66
1
 70
1
 40
0.000000
 41
0.000000
 39
0.000000
  0
VERTEX
  8
PIN_TOP
 10
161.300000
 20
35.485000
 40
0.000000
 41
0.000000
 42
0.000000
  0
VERTEX
  8
PIN_TOP
 10
159.600000
 20
35.485000
 40
0.000000
 41
0.000000
 42
0.000000
  0
VERTEX
  8
PIN_TOP
 10
159.600000
 20
34.915000
 40
0.000000
 41
0.000000
 42
0.000000
  0
VERTEX
  8
PIN_TOP
 10
158.800000
 20
34.915000
 40
0.000000
 41
0.000000
 42
0.000000
  0
VERTEX
  8
PIN_TOP
 10
158.800000
 20
35.485000
 40
0.000000
 41
0.000000
 42
0.000000
  0
VERTEX
  8
PIN_TOP
 10
159.200000
 20
35.485000
 40
0.000000
 41
0.000000
 42
0.000000
  0
VERTEX
  8
PIN_TOP
 10
159.200000
 20
39.915000
 40
0.000000
 41
0.000000
 42
0.000000
  0
VERTEX
  8
PIN_TOP
 10
158.800000
 20
39.915000
 40
0.000000
 41
0.000000
 42
0.000000
  0
VERTEX
  8
PIN_TOP
 10
158.800000
 20
40.485000
 40
0.000000
 41
0.000000
 42
0.000000
  0
VERTEX
  8
PIN_TOP
 10
159.600000
 20
40.485000
 40
0.000000
 41
0.000000
 42
0.000000
  0
VERTEX
  8
PIN_TOP
 10
159.600000
 20
39.915000
 40
0.000000
 41
0.000000
 42
0.000000
  0
VERTEX
  8
PIN_TOP
 10
161.300000
 20
39.915000
 40
0.000000
 41
0.000000
 42
0.000000
  0
VERTEX
  8
PIN_TOP
 10
161.300000
 20
37.700000
 40
0.000000
 41
0.000000
 42
0.000000
  0
SEQEND
  0
POLYLINE
  8
PIN_SOLDERMASK_TOP
 66
1
 70
1
 40
0.000000
 41
0.000000
 39
0.000000
  0
VERTEX
  8
PIN_SOLDERMASK_TOP
 10
161.300000
 20
35.485000
 40
0.000000
 41
0.000000
 42
0.000000
  0
VERTEX
  8
PIN_SOLDERMASK_TOP
 10
159.600000
 20
35.485000
 40
0.000000
 41
0.000000
 42
0.000000
  0
VERTEX
  8
PIN_SOLDERMASK_TOP
 10
159.600000
 20
34.915000
 40
0.000000
 41
0.000000
 42
0.000000
  0
VERTEX
  8
PIN_SOLDERMASK_TOP
 10
158.800000
 20
34.915000
 40
0.000000
 41
0.000000
 42
0.000000
  0
VERTEX
  8
PIN_SOLDERMASK_TOP
 10
158.800000
 20
35.485000
 40
0.000000
 41
0.000000
 42
0.000000
  0
VERTEX
  8
PIN_SOLDERMASK_TOP
 10
159.200000
 20
35.485000
 40
0.000000
 41
0.000000
 42
0.000000
  0
VERTEX
  8
PIN_SOLDERMASK_TOP
 10
159.200000
 20
39.915000
 40
0.000000
 41
0.000000
 42
0.000000
  0
VERTEX
  8
PIN_SOLDERMASK_TOP
 10
158.800000
 20
39.915000
 40
0.000000
 41
0.000000
 42
0.000000
  0
VERTEX
  8
PIN_SOLDERMASK_TOP
 10
158.800000
 20
40.485000
 40
0.000000
 41
0.000000
 42
0.000000
  0
VERTEX
  8
PIN_SOLDERMASK_TOP
 10
159.600000
 20
40.485000
 40
0.000000
 41
0.000000
 42
0.000000
  0
VERTEX
  8
PIN_SOLDERMASK_TOP
 10
159.600000
 20
39.915000
 40
0.000000
 41
0.000000
 42
0.000000
  0
VERTEX
  8
PIN_SOLDERMASK_TOP
 10
161.300000
 20
39.915000
 40
0.000000
 41
0.000000
 42
0.000000
  0
VERTEX
  8
PIN_SOLDERMASK_TOP
 10
161.300000
 20
37.700000
 40
0.000000
 41
0.000000
 42
0.000000
  0
SEQEND
  0
POLYLINE
  8
PIN_TOP
 66
1
 70
1
 40
0.000000
 41
0.000000
 39
0.000000
  0
VERTEX
  8
PIN_TOP
 10
161.700000
 20
39.915000
 40
0.000000
 41
0.000000
 42
0.000000
  0
VERTEX
  8
PIN_TOP
 10
163.400000
 20
39.915000
 40
0.000000
 41
0.000000
 42
0.000000
  0
VERTEX
  8
PIN_TOP
 10
163.400000
 20
40.485000
 40
0.000000
 41
0.000000
 42
0.000000
  0
VERTEX
  8
PIN_TOP
 10
164.200000
 20
40.485000
 40
0.000000
 41
0.000000
 42
0.000000
  0
VERTEX
  8
PIN_TOP
 10
164.200000
 20
39.915000
 40
0.000000
 41
0.000000
 42
0.000000
  0
VERTEX
  8
PIN_TOP
 10
163.800000
 20
39.915000
 40
0.000000
 41
0.000000
 42
0.000000
  0
VERTEX
  8
PIN_TOP
 10
163.800000
 20
35.485000
 40
0.000000
 41
0.000000
 42
0.000000
  0
VERTEX
  8
PIN_TOP
 10
164.200000
 20
35.485000
 40
0.000000
 41
0.000000
 42
0.000000
  0
VERTEX
  8
PIN_TOP
 10
164.200000
 20
34.915000
 40
0.000000
 41
0.000000
 42
0.000000
  0
VERTEX
  8
PIN_TOP
 10
163.400000
 20
34.915000
 40
0.000000
 41
0.000000
 42
0.000000
  0
VERTEX
  8
PIN_TOP
 10
163.400000
 20
35.485000
 40
0.000000
 41
0.000000
 42
0.000000
  0
VERTEX
  8
PIN_TOP
 10
161.700000
 20
35.485000
 40
0.000000
 41
0.000000
 42
0.000000
  0
VERTEX
  8
PIN_TOP
 10
161.700000
 20
37.700000
 40
0.000000
 41
0.000000
 42
0.000000
  0
SEQEND
  0
POLYLINE
  8
PIN_SOLDERMASK_TOP
 66
1
 70
1
 40
0.000000
 41
0.000000
 39
0.000000
  0
VERTEX
  8
PIN_SOLDERMASK_TOP
 10
161.700000
 20
39.915000
 40
0.000000
 41
0.000000
 42
0.000000
  0
VERTEX
  8
PIN_SOLDERMASK_TOP
 10
163.400000
 20
39.915000
 40
0.000000
 41
0.000000
 42
0.000000
  0
VERTEX
  8
PIN_SOLDERMASK_TOP
 10
163.400000
 20
40.485000
 40
0.000000
 41
0.000000
 42
0.000000
  0
VERTEX
  8
PIN_SOLDERMASK_TOP
 10
164.200000
 20
40.485000
 40
0.000000
 41
0.000000
 42
0.000000
  0
VERTEX
  8
PIN_SOLDERMASK_TOP
 10
164.200000
 20
39.915000
 40
0.000000
 41
0.000000
 42
0.000000
  0
VERTEX
  8
PIN_SOLDERMASK_TOP
 10
163.800000
 20
39.915000
 40
0.000000
 41
0.000000
 42
0.000000
  0
VERTEX
  8
PIN_SOLDERMASK_TOP
 10
163.800000
 20
35.485000
 40
0.000000
 41
0.000000
 42
0.000000
  0
VERTEX
  8
PIN_SOLDERMASK_TOP
 10
164.200000
 20
35.485000
 40
0.000000
 41
0.000000
 42
0.000000
  0
VERTEX
  8
PIN_SOLDERMASK_TOP
 10
164.200000
 20
34.915000
 40
0.000000
 41
0.000000
 42
0.000000
  0
VERTEX
  8
PIN_SOLDERMASK_TOP
 10
163.400000
 20
34.915000
 40
0.000000
 41
0.000000
 42
0.000000
  0
VERTEX
  8
PIN_SOLDERMASK_TOP
 10
163.400000
 20
35.485000
 40
0.000000
 41
0.000000
 42
0.000000
  0
VERTEX
  8
PIN_SOLDERMASK_TOP
 10
161.700000
 20
35.485000
 40
0.000000
 41
0.000000
 42
0.000000
  0
VERTEX
  8
PIN_SOLDERMASK_TOP
 10
161.700000
 20
37.700000
 40
0.000000
 41
0.000000
 42
0.000000
  0
SEQEND
  0
POLYLINE
  8
PG_SOLDERMASK_TOP
 66
1
 70
1
 40
0.000000
 41
0.000000
 39
0.000000
  0
VERTEX
  8
PG_SOLDERMASK_TOP
 10
167.600000
 20
37.700000
 40
0.000000
 41
0.000000
 42
1.000000
  0
VERTEX
  8
PG_SOLDERMASK_TOP
 10
166.799986
 20
37.700018
 40
0.000000
 41
0.000000
 42
1.000000
  0
SEQEND
  0
POLYLINE
  8
PG_SOLDERMASK_TOP
 66
1
 70
1
 40
0.000000
 41
0.000000
 39
0.000000
  0
VERTEX
  8
PG_SOLDERMASK_TOP
 10
156.200000
 20
37.700000
 40
0.000000
 41
0.000000
 42
1.000000
  0
VERTEX
  8
PG_SOLDERMASK_TOP
 10
155.399986
 20
37.700018
 40
0.000000
 41
0.000000
 42
1.000000
  0
SEQEND
  0
TEXT
  8
RD_SILKSCREEN_TOP
 10
160.000000
 20
41.250000
 11
0.000000
 21
0.000000
 40
0.800000
 41
1.250000
 50
0.000000
  7
STANDARD
 71
0
 72
0
  1
L11
 73
0
  0
POLYLINE
  8
PIN_TOP
 66
1
 70
1
 40
0.000000
 41
0.000000
 39
0.000000
  0
VERTEX
  8
PIN_TOP
 10
161.300000
 20
10.085000
 40
0.000000
 41
0.000000
 42
0.000000
  0
VERTEX
  8
PIN_TOP
 10
159.600000
 20
10.085000
 40
0.000000
 41
0.000000
 42
0.000000
  0
VERTEX
  8
PIN_TOP
 10
159.600000
 20
9.515000
 40
0.000000
 41
0.000000
 42
0.000000
  0
VERTEX
  8
PIN_TOP
 10
158.800000
 20
9.515000
 40
0.000000
 41
0.000000
 42
0.000000
  0
VERTEX
  8
PIN_TOP
 10
158.800000
 20
10.085000
 40
0.000000
 41
0.000000
 42
0.000000
  0
VERTEX
  8
PIN_TOP
 10
159.200000
 20
10.085000
 40
0.000000
 41
0.000000
 42
0.000000
  0
VERTEX
  8
PIN_TOP
 10
159.200000
 20
14.515000
 40
0.000000
 41
0.000000
 42
0.000000
  0
VERTEX
  8
PIN_TOP
 10
158.800000
 20
14.515000
 40
0.000000
 41
0.000000
 42
0.000000
  0
VERTEX
  8
PIN_TOP
 10
158.800000
 20
15.085000
 40
0.000000
 41
0.000000
 42
0.000000
  0
VERTEX
  8
PIN_TOP
 10
159.600000
 20
15.085000
 40
0.000000
 41
0.000000
 42
0.000000
  0
VERTEX
  8
PIN_TOP
 10
159.600000
 20
14.515000
 40
0.000000
 41
0.000000
 42
0.000000
  0
VERTEX
  8
PIN_TOP
 10
161.300000
 20
14.515000
 40
0.000000
 41
0.000000
 42
0.000000
  0
VERTEX
  8
PIN_TOP
 10
161.300000
 20
12.300000
 40
0.000000
 41
0.000000
 42
0.000000
  0
SEQEND
  0
POLYLINE
  8
PIN_SOLDERMASK_TOP
 66
1
 70
1
 40
0.000000
 41
0.000000
 39
0.000000
  0
VERTEX
  8
PIN_SOLDERMASK_TOP
 10
161.300000
 20
10.085000
 40
0.000000
 41
0.000000
 42
0.000000
  0
VERTEX
  8
PIN_SOLDERMASK_TOP
 10
159.600000
 20
10.085000
 40
0.000000
 41
0.000000
 42
0.000000
  0
VERTEX
  8
PIN_SOLDERMASK_TOP
 10
159.600000
 20
9.515000
 40
0.000000
 41
0.000000
 42
0.000000
  0
VERTEX
  8
PIN_SOLDERMASK_TOP
 10
158.800000
 20
9.515000
 40
0.000000
 41
0.000000
 42
0.000000
  0
VERTEX
  8
PIN_SOLDERMASK_TOP
 10
158.800000
 20
10.085000
 40
0.000000
 41
0.000000
 42
0.000000
  0
VERTEX
  8
PIN_SOLDERMASK_TOP
 10
159.200000
 20
10.085000
 40
0.000000
 41
0.000000
 42
0.000000
  0
VERTEX
  8
PIN_SOLDERMASK_TOP
 10
159.200000
 20
14.515000
 40
0.000000
 41
0.000000
 42
0.000000
  0
VERTEX
  8
PIN_SOLDERMASK_TOP
 10
158.800000
 20
14.515000
 40
0.000000
 41
0.000000
 42
0.000000
  0
VERTEX
  8
PIN_SOLDERMASK_TOP
 10
158.800000
 20
15.085000
 40
0.000000
 41
0.000000
 42
0.000000
  0
VERTEX
  8
PIN_SOLDERMASK_TOP
 10
159.600000
 20
15.085000
 40
0.000000
 41
0.000000
 42
0.000000
  0
VERTEX
  8
PIN_SOLDERMASK_TOP
 10
159.600000
 20
14.515000
 40
0.000000
 41
0.000000
 42
0.000000
  0
VERTEX
  8
PIN_SOLDERMASK_TOP
 10
161.300000
 20
14.515000
 40
0.000000
 41
0.000000
 42
0.000000
  0
VERTEX
  8
PIN_SOLDERMASK_TOP
 10
161.300000
 20
12.300000
 40
0.000000
 41
0.000000
 42
0.000000
  0
SEQEND
  0
POLYLINE
  8
PIN_TOP
 66
1
 70
1
 40
0.000000
 41
0.000000
 39
0.000000
  0
VERTEX
  8
PIN_TOP
 10
161.700000
 20
14.515000
 40
0.000000
 41
0.000000
 42
0.000000
  0
VERTEX
  8
PIN_TOP
 10
163.400000
 20
14.515000
 40
0.000000
 41
0.000000
 42
0.000000
  0
VERTEX
  8
PIN_TOP
 10
163.400000
 20
15.085000
 40
0.000000
 41
0.000000
 42
0.000000
  0
VERTEX
  8
PIN_TOP
 10
164.200000
 20
15.085000
 40
0.000000
 41
0.000000
 42
0.000000
  0
VERTEX
  8
PIN_TOP
 10
164.200000
 20
14.515000
 40
0.000000
 41
0.000000
 42
0.000000
  0
VERTEX
  8
PIN_TOP
 10
163.800000
 20
14.515000
 40
0.000000
 41
0.000000
 42
0.000000
  0
VERTEX
  8
PIN_TOP
 10
163.800000
 20
10.085000
 40
0.000000
 41
0.000000
 42
0.000000
  0
VERTEX
  8
PIN_TOP
 10
164.200000
 20
10.085000
 40
0.000000
 41
0.000000
 42
0.000000
  0
VERTEX
  8
PIN_TOP
 10
164.200000
 20
9.515000
 40
0.000000
 41
0.000000
 42
0.000000
  0
VERTEX
  8
PIN_TOP
 10
163.400000
 20
9.515000
 40
0.000000
 41
0.000000
 42
0.000000
  0
VERTEX
  8
PIN_TOP
 10
163.400000
 20
10.085000
 40
0.000000
 41
0.000000
 42
0.000000
  0
VERTEX
  8
PIN_TOP
 10
161.700000
 20
10.085000
 40
0.000000
 41
0.000000
 42
0.000000
  0
VERTEX
  8
PIN_TOP
 10
161.700000
 20
12.300000
 40
0.000000
 41
0.000000
 42
0.000000
  0
SEQEND
  0
POLYLINE
  8
PIN_SOLDERMASK_TOP
 66
1
 70
1
 40
0.000000
 41
0.000000
 39
0.000000
  0
VERTEX
  8
PIN_SOLDERMASK_TOP
 10
161.700000
 20
14.515000
 40
0.000000
 41
0.000000
 42
0.000000
  0
VERTEX
  8
PIN_SOLDERMASK_TOP
 10
163.400000
 20
14.515000
 40
0.000000
 41
0.000000
 42
0.000000
  0
VERTEX
  8
PIN_SOLDERMASK_TOP
 10
163.400000
 20
15.085000
 40
0.000000
 41
0.000000
 42
0.000000
  0
VERTEX
  8
PIN_SOLDERMASK_TOP
 10
164.200000
 20
15.085000
 40
0.000000
 41
0.000000
 42
0.000000
  0
VERTEX
  8
PIN_SOLDERMASK_TOP
 10
164.200000
 20
14.515000
 40
0.000000
 41
0.000000
 42
0.000000
  0
VERTEX
  8
PIN_SOLDERMASK_TOP
 10
163.800000
 20
14.515000
 40
0.000000
 41
0.000000
 42
0.000000
  0
VERTEX
  8
PIN_SOLDERMASK_TOP
 10
163.800000
 20
10.085000
 40
0.000000
 41
0.000000
 42
0.000000
  0
VERTEX
  8
PIN_SOLDERMASK_TOP
 10
164.200000
 20
10.085000
 40
0.000000
 41
0.000000
 42
0.000000
  0
VERTEX
  8
PIN_SOLDERMASK_TOP
 10
164.200000
 20
9.515000
 40
0.000000
 41
0.000000
 42
0.000000
  0
VERTEX
  8
PIN_SOLDERMASK_TOP
 10
163.400000
 20
9.515000
 40
0.000000
 41
0.000000
 42
0.000000
  0
VERTEX
  8
PIN_SOLDERMASK_TOP
 10
163.400000
 20
10.085000
 40
0.000000
 41
0.000000
 42
0.000000
  0
VERTEX
  8
PIN_SOLDERMASK_TOP
 10
161.700000
 20
10.085000
 40
0.000000
 41
0.000000
 42
0.000000
  0
VERTEX
  8
PIN_SOLDERMASK_TOP
 10
161.700000
 20
12.300000
 40
0.000000
 41
0.000000
 42
0.000000
  0
SEQEND
  0
POLYLINE
  8
PG_SOLDERMASK_TOP
 66
1
 70
1
 40
0.000000
 41
0.000000
 39
0.000000
  0
VERTEX
  8
PG_SOLDERMASK_TOP
 10
167.600000
 20
12.300000
 40
0.000000
 41
0.000000
 42
1.000000
  0
VERTEX
  8
PG_SOLDERMASK_TOP
 10
166.799986
 20
12.300018
 40
0.000000
 41
0.000000
 42
1.000000
  0
SEQEND
  0
POLYLINE
  8
PG_SOLDERMASK_TOP
 66
1
 70
1
 40
0.000000
 41
0.000000
 39
0.000000
  0
VERTEX
  8
PG_SOLDERMASK_TOP
 10
156.200000
 20
12.300000
 40
0.000000
 41
0.000000
 42
1.000000
  0
VERTEX
  8
PG_SOLDERMASK_TOP
 10
155.399986
 20
12.300018
 40
0.000000
 41
0.000000
 42
1.000000
  0
SEQEND
  0
TEXT
  8
RD_SILKSCREEN_TOP
 10
160.000000
 20
15.750000
 11
0.000000
 21
0.000000
 40
0.800000
 41
1.250000
 50
0.000000
  7
STANDARD
 71
0
 72
0
  1
L12
 73
0
  0
POLYLINE
  8
PIN_TOP
 66
1
 70
1
 40
0.000000
 41
0.000000
 39
0.000000
  0
VERTEX
  8
PIN_TOP
 10
186.700000
 20
35.485000
 40
0.000000
 41
0.000000
 42
0.000000
  0
VERTEX
  8
PIN_TOP
 10
185.000000
 20
35.485000
 40
0.000000
 41
0.000000
 42
0.000000
  0
VERTEX
  8
PIN_TOP
 10
185.000000
 20
34.915000
 40
0.000000
 41
0.000000
 42
0.000000
  0
VERTEX
  8
PIN_TOP
 10
184.200000
 20
34.915000
 40
0.000000
 41
0.000000
 42
0.000000
  0
VERTEX
  8
PIN_TOP
 10
184.200000
 20
35.485000
 40
0.000000
 41
0.000000
 42
0.000000
  0
VERTEX
  8
PIN_TOP
 10
184.600000
 20
35.485000
 40
0.000000
 41
0.000000
 42
0.000000
  0
VERTEX
  8
PIN_TOP
 10
184.600000
 20
39.915000
 40
0.000000
 41
0.000000
 42
0.000000
  0
VERTEX
  8
PIN_TOP
 10
184.200000
 20
39.915000
 40
0.000000
 41
0.000000
 42
0.000000
  0
VERTEX
  8
PIN_TOP
 10
184.200000
 20
40.485000
 40
0.000000
 41
0.000000
 42
0.000000
  0
VERTEX
  8
PIN_TOP
 10
185.000000
 20
40.485000
 40
0.000000
 41
0.000000
 42
0.000000
  0
VERTEX
  8
PIN_TOP
 10
185.000000
 20
39.915000
 40
0.000000
 41
0.000000
 42
0.000000
  0
VERTEX
  8
PIN_TOP
 10
186.700000
 20
39.915000
 40
0.000000
 41
0.000000
 42
0.000000
  0
VERTEX
  8
PIN_TOP
 10
186.700000
 20
37.700000
 40
0.000000
 41
0.000000
 42
0.000000
  0
SEQEND
  0
POLYLINE
  8
PIN_SOLDERMASK_TOP
 66
1
 70
1
 40
0.000000
 41
0.000000
 39
0.000000
  0
VERTEX
  8
PIN_SOLDERMASK_TOP
 10
186.700000
 20
35.485000
 40
0.000000
 41
0.000000
 42
0.000000
  0
VERTEX
  8
PIN_SOLDERMASK_TOP
 10
185.000000
 20
35.485000
 40
0.000000
 41
0.000000
 42
0.000000
  0
VERTEX
  8
PIN_SOLDERMASK_TOP
 10
185.000000
 20
34.915000
 40
0.000000
 41
0.000000
 42
0.000000
  0
VERTEX
  8
PIN_SOLDERMASK_TOP
 10
184.200000
 20
34.915000
 40
0.000000
 41
0.000000
 42
0.000000
  0
VERTEX
  8
PIN_SOLDERMASK_TOP
 10
184.200000
 20
35.485000
 40
0.000000
 41
0.000000
 42
0.000000
  0
VERTEX
  8
PIN_SOLDERMASK_TOP
 10
184.600000
 20
35.485000
 40
0.000000
 41
0.000000
 42
0.000000
  0
VERTEX
  8
PIN_SOLDERMASK_TOP
 10
184.600000
 20
39.915000
 40
0.000000
 41
0.000000
 42
0.000000
  0
VERTEX
  8
PIN_SOLDERMASK_TOP
 10
184.200000
 20
39.915000
 40
0.000000
 41
0.000000
 42
0.000000
  0
VERTEX
  8
PIN_SOLDERMASK_TOP
 10
184.200000
 20
40.485000
 40
0.000000
 41
0.000000
 42
0.000000
  0
VERTEX
  8
PIN_SOLDERMASK_TOP
 10
185.000000
 20
40.485000
 40
0.000000
 41
0.000000
 42
0.000000
  0
VERTEX
  8
PIN_SOLDERMASK_TOP
 10
185.000000
 20
39.915000
 40
0.000000
 41
0.000000
 42
0.000000
  0
VERTEX
  8
PIN_SOLDERMASK_TOP
 10
186.700000
 20
39.915000
 40
0.000000
 41
0.000000
 42
0.000000
  0
VERTEX
  8
PIN_SOLDERMASK_TOP
 10
186.700000
 20
37.700000
 40
0.000000
 41
0.000000
 42
0.000000
  0
SEQEND
  0
POLYLINE
  8
PIN_TOP
 66
1
 70
1
 40
0.000000
 41
0.000000
 39
0.000000
  0
VERTEX
  8
PIN_TOP
 10
187.100000
 20
39.915000
 40
0.000000
 41
0.000000
 42
0.000000
  0
VERTEX
  8
PIN_TOP
 10
188.800000
 20
39.915000
 40
0.000000
 41
0.000000
 42
0.000000
  0
VERTEX
  8
PIN_TOP
 10
188.800000
 20
40.485000
 40
0.000000
 41
0.000000
 42
0.000000
  0
VERTEX
  8
PIN_TOP
 10
189.600000
 20
40.485000
 40
0.000000
 41
0.000000
 42
0.000000
  0
VERTEX
  8
PIN_TOP
 10
189.600000
 20
39.915000
 40
0.000000
 41
0.000000
 42
0.000000
  0
VERTEX
  8
PIN_TOP
 10
189.200000
 20
39.915000
 40
0.000000
 41
0.000000
 42
0.000000
  0
VERTEX
  8
PIN_TOP
 10
189.200000
 20
35.485000
 40
0.000000
 41
0.000000
 42
0.000000
  0
VERTEX
  8
PIN_TOP
 10
189.600000
 20
35.485000
 40
0.000000
 41
0.000000
 42
0.000000
  0
VERTEX
  8
PIN_TOP
 10
189.600000
 20
34.915000
 40
0.000000
 41
0.000000
 42
0.000000
  0
VERTEX
  8
PIN_TOP
 10
188.800000
 20
34.915000
 40
0.000000
 41
0.000000
 42
0.000000
  0
VERTEX
  8
PIN_TOP
 10
188.800000
 20
35.485000
 40
0.000000
 41
0.000000
 42
0.000000
  0
VERTEX
  8
PIN_TOP
 10
187.100000
 20
35.485000
 40
0.000000
 41
0.000000
 42
0.000000
  0
VERTEX
  8
PIN_TOP
 10
187.100000
 20
37.700000
 40
0.000000
 41
0.000000
 42
0.000000
  0
SEQEND
  0
POLYLINE
  8
PIN_SOLDERMASK_TOP
 66
1
 70
1
 40
0.000000
 41
0.000000
 39
0.000000
  0
VERTEX
  8
PIN_SOLDERMASK_TOP
 10
187.100000
 20
39.915000
 40
0.000000
 41
0.000000
 42
0.000000
  0
VERTEX
  8
PIN_SOLDERMASK_TOP
 10
188.800000
 20
39.915000
 40
0.000000
 41
0.000000
 42
0.000000
  0
VERTEX
  8
PIN_SOLDERMASK_TOP
 10
188.800000
 20
40.485000
 40
0.000000
 41
0.000000
 42
0.000000
  0
VERTEX
  8
PIN_SOLDERMASK_TOP
 10
189.600000
 20
40.485000
 40
0.000000
 41
0.000000
 42
0.000000
  0
VERTEX
  8
PIN_SOLDERMASK_TOP
 10
189.600000
 20
39.915000
 40
0.000000
 41
0.000000
 42
0.000000
  0
VERTEX
  8
PIN_SOLDERMASK_TOP
 10
189.200000
 20
39.915000
 40
0.000000
 41
0.000000
 42
0.000000
  0
VERTEX
  8
PIN_SOLDERMASK_TOP
 10
189.200000
 20
35.485000
 40
0.000000
 41
0.000000
 42
0.000000
  0
VERTEX
  8
PIN_SOLDERMASK_TOP
 10
189.600000
 20
35.485000
 40
0.000000
 41
0.000000
 42
0.000000
  0
VERTEX
  8
PIN_SOLDERMASK_TOP
 10
189.600000
 20
34.915000
 40
0.000000
 41
0.000000
 42
0.000000
  0
VERTEX
  8
PIN_SOLDERMASK_TOP
 10
188.800000
 20
34.915000
 40
0.000000
 41
0.000000
 42
0.000000
  0
VERTEX
  8
PIN_SOLDERMASK_TOP
 10
188.800000
 20
35.485000
 40
0.000000
 41
0.000000
 42
0.000000
  0
VERTEX
  8
PIN_SOLDERMASK_TOP
 10
187.100000
 20
35.485000
 40
0.000000
 41
0.000000
 42
0.000000
  0
VERTEX
  8
PIN_SOLDERMASK_TOP
 10
187.100000
 20
37.700000
 40
0.000000
 41
0.000000
 42
0.000000
  0
SEQEND
  0
POLYLINE
  8
PG_SOLDERMASK_TOP
 66
1
 70
1
 40
0.000000
 41
0.000000
 39
0.000000
  0
VERTEX
  8
PG_SOLDERMASK_TOP
 10
193.000000
 20
37.700000
 40
0.000000
 41
0.000000
 42
1.000000
  0
VERTEX
  8
PG_SOLDERMASK_TOP
 10
192.199986
 20
37.700018
 40
0.000000
 41
0.000000
 42
1.000000
  0
SEQEND
  0
POLYLINE
  8
PG_SOLDERMASK_TOP
 66
1
 70
1
 40
0.000000
 41
0.000000
 39
0.000000
  0
VERTEX
  8
PG_SOLDERMASK_TOP
 10
181.600000
 20
37.700000
 40
0.000000
 41
0.000000
 42
1.000000
  0
VERTEX
  8
PG_SOLDERMASK_TOP
 10
180.799986
 20
37.700018
 40
0.000000
 41
0.000000
 42
1.000000
  0
SEQEND
  0
TEXT
  8
RD_SILKSCREEN_TOP
 10
185.500000
 20
41.250000
 11
0.000000
 21
0.000000
 40
0.800000
 41
1.250000
 50
0.000000
  7
STANDARD
 71
0
 72
0
  1
L13
 73
0
  0
POLYLINE
  8
PIN_TOP
 66
1
 70
1
 40
0.000000
 41
0.000000
 39
0.000000
  0
VERTEX
  8
PIN_TOP
 10
186.700000
 20
10.085000
 40
0.000000
 41
0.000000
 42
0.000000
  0
VERTEX
  8
PIN_TOP
 10
185.000000
 20
10.085000
 40
0.000000
 41
0.000000
 42
0.000000
  0
VERTEX
  8
PIN_TOP
 10
185.000000
 20
9.515000
 40
0.000000
 41
0.000000
 42
0.000000
  0
VERTEX
  8
PIN_TOP
 10
184.200000
 20
9.515000
 40
0.000000
 41
0.000000
 42
0.000000
  0
VERTEX
  8
PIN_TOP
 10
184.200000
 20
10.085000
 40
0.000000
 41
0.000000
 42
0.000000
  0
VERTEX
  8
PIN_TOP
 10
184.600000
 20
10.085000
 40
0.000000
 41
0.000000
 42
0.000000
  0
VERTEX
  8
PIN_TOP
 10
184.600000
 20
14.515000
 40
0.000000
 41
0.000000
 42
0.000000
  0
VERTEX
  8
PIN_TOP
 10
184.200000
 20
14.515000
 40
0.000000
 41
0.000000
 42
0.000000
  0
VERTEX
  8
PIN_TOP
 10
184.200000
 20
15.085000
 40
0.000000
 41
0.000000
 42
0.000000
  0
VERTEX
  8
PIN_TOP
 10
185.000000
 20
15.085000
 40
0.000000
 41
0.000000
 42
0.000000
  0
VERTEX
  8
PIN_TOP
 10
185.000000
 20
14.515000
 40
0.000000
 41
0.000000
 42
0.000000
  0
VERTEX
  8
PIN_TOP
 10
186.700000
 20
14.515000
 40
0.000000
 41
0.000000
 42
0.000000
  0
VERTEX
  8
PIN_TOP
 10
186.700000
 20
12.300000
 40
0.000000
 41
0.000000
 42
0.000000
  0
SEQEND
  0
POLYLINE
  8
PIN_SOLDERMASK_TOP
 66
1
 70
1
 40
0.000000
 41
0.000000
 39
0.000000
  0
VERTEX
  8
PIN_SOLDERMASK_TOP
 10
186.700000
 20
10.085000
 40
0.000000
 41
0.000000
 42
0.000000
  0
VERTEX
  8
PIN_SOLDERMASK_TOP
 10
185.000000
 20
10.085000
 40
0.000000
 41
0.000000
 42
0.000000
  0
VERTEX
  8
PIN_SOLDERMASK_TOP
 10
185.000000
 20
9.515000
 40
0.000000
 41
0.000000
 42
0.000000
  0
VERTEX
  8
PIN_SOLDERMASK_TOP
 10
184.200000
 20
9.515000
 40
0.000000
 41
0.000000
 42
0.000000
  0
VERTEX
  8
PIN_SOLDERMASK_TOP
 10
184.200000
 20
10.085000
 40
0.000000
 41
0.000000
 42
0.000000
  0
VERTEX
  8
PIN_SOLDERMASK_TOP
 10
184.600000
 20
10.085000
 40
0.000000
 41
0.000000
 42
0.000000
  0
VERTEX
  8
PIN_SOLDERMASK_TOP
 10
184.600000
 20
14.515000
 40
0.000000
 41
0.000000
 42
0.000000
  0
VERTEX
  8
PIN_SOLDERMASK_TOP
 10
184.200000
 20
14.515000
 40
0.000000
 41
0.000000
 42
0.000000
  0
VERTEX
  8
PIN_SOLDERMASK_TOP
 10
184.200000
 20
15.085000
 40
0.000000
 41
0.000000
 42
0.000000
  0
VERTEX
  8
PIN_SOLDERMASK_TOP
 10
185.000000
 20
15.085000
 40
0.000000
 41
0.000000
 42
0.000000
  0
VERTEX
  8
PIN_SOLDERMASK_TOP
 10
185.000000
 20
14.515000
 40
0.000000
 41
0.000000
 42
0.000000
  0
VERTEX
  8
PIN_SOLDERMASK_TOP
 10
186.700000
 20
14.515000
 40
0.000000
 41
0.000000
 42
0.000000
  0
VERTEX
  8
PIN_SOLDERMASK_TOP
 10
186.700000
 20
12.300000
 40
0.000000
 41
0.000000
 42
0.000000
  0
SEQEND
  0
POLYLINE
  8
PIN_TOP
 66
1
 70
1
 40
0.000000
 41
0.000000
 39
0.000000
  0
VERTEX
  8
PIN_TOP
 10
187.100000
 20
14.515000
 40
0.000000
 41
0.000000
 42
0.000000
  0
VERTEX
  8
PIN_TOP
 10
188.800000
 20
14.515000
 40
0.000000
 41
0.000000
 42
0.000000
  0
VERTEX
  8
PIN_TOP
 10
188.800000
 20
15.085000
 40
0.000000
 41
0.000000
 42
0.000000
  0
VERTEX
  8
PIN_TOP
 10
189.600000
 20
15.085000
 40
0.000000
 41
0.000000
 42
0.000000
  0
VERTEX
  8
PIN_TOP
 10
189.600000
 20
14.515000
 40
0.000000
 41
0.000000
 42
0.000000
  0
VERTEX
  8
PIN_TOP
 10
189.200000
 20
14.515000
 40
0.000000
 41
0.000000
 42
0.000000
  0
VERTEX
  8
PIN_TOP
 10
189.200000
 20
10.085000
 40
0.000000
 41
0.000000
 42
0.000000
  0
VERTEX
  8
PIN_TOP
 10
189.600000
 20
10.085000
 40
0.000000
 41
0.000000
 42
0.000000
  0
VERTEX
  8
PIN_TOP
 10
189.600000
 20
9.515000
 40
0.000000
 41
0.000000
 42
0.000000
  0
VERTEX
  8
PIN_TOP
 10
188.800000
 20
9.515000
 40
0.000000
 41
0.000000
 42
0.000000
  0
VERTEX
  8
PIN_TOP
 10
188.800000
 20
10.085000
 40
0.000000
 41
0.000000
 42
0.000000
  0
VERTEX
  8
PIN_TOP
 10
187.100000
 20
10.085000
 40
0.000000
 41
0.000000
 42
0.000000
  0
VERTEX
  8
PIN_TOP
 10
187.100000
 20
12.300000
 40
0.000000
 41
0.000000
 42
0.000000
  0
SEQEND
  0
POLYLINE
  8
PIN_SOLDERMASK_TOP
 66
1
 70
1
 40
0.000000
 41
0.000000
 39
0.000000
  0
VERTEX
  8
PIN_SOLDERMASK_TOP
 10
187.100000
 20
14.515000
 40
0.000000
 41
0.000000
 42
0.000000
  0
VERTEX
  8
PIN_SOLDERMASK_TOP
 10
188.800000
 20
14.515000
 40
0.000000
 41
0.000000
 42
0.000000
  0
VERTEX
  8
PIN_SOLDERMASK_TOP
 10
188.800000
 20
15.085000
 40
0.000000
 41
0.000000
 42
0.000000
  0
VERTEX
  8
PIN_SOLDERMASK_TOP
 10
189.600000
 20
15.085000
 40
0.000000
 41
0.000000
 42
0.000000
  0
VERTEX
  8
PIN_SOLDERMASK_TOP
 10
189.600000
 20
14.515000
 40
0.000000
 41
0.000000
 42
0.000000
  0
VERTEX
  8
PIN_SOLDERMASK_TOP
 10
189.200000
 20
14.515000
 40
0.000000
 41
0.000000
 42
0.000000
  0
VERTEX
  8
PIN_SOLDERMASK_TOP
 10
189.200000
 20
10.085000
 40
0.000000
 41
0.000000
 42
0.000000
  0
VERTEX
  8
PIN_SOLDERMASK_TOP
 10
189.600000
 20
10.085000
 40
0.000000
 41
0.000000
 42
0.000000
  0
VERTEX
  8
PIN_SOLDERMASK_TOP
 10
189.600000
 20
9.515000
 40
0.000000
 41
0.000000
 42
0.000000
  0
VERTEX
  8
PIN_SOLDERMASK_TOP
 10
188.800000
 20
9.515000
 40
0.000000
 41
0.000000
 42
0.000000
  0
VERTEX
  8
PIN_SOLDERMASK_TOP
 10
188.800000
 20
10.085000
 40
0.000000
 41
0.000000
 42
0.000000
  0
VERTEX
  8
PIN_SOLDERMASK_TOP
 10
187.100000
 20
10.085000
 40
0.000000
 41
0.000000
 42
0.000000
  0
VERTEX
  8
PIN_SOLDERMASK_TOP
 10
187.100000
 20
12.300000
 40
0.000000
 41
0.000000
 42
0.000000
  0
SEQEND
  0
POLYLINE
  8
PG_SOLDERMASK_TOP
 66
1
 70
1
 40
0.000000
 41
0.000000
 39
0.000000
  0
VERTEX
  8
PG_SOLDERMASK_TOP
 10
193.000000
 20
12.300000
 40
0.000000
 41
0.000000
 42
1.000000
  0
VERTEX
  8
PG_SOLDERMASK_TOP
 10
192.199986
 20
12.300018
 40
0.000000
 41
0.000000
 42
1.000000
  0
SEQEND
  0
POLYLINE
  8
PG_SOLDERMASK_TOP
 66
1
 70
1
 40
0.000000
 41
0.000000
 39
0.000000
  0
VERTEX
  8
PG_SOLDERMASK_TOP
 10
181.600000
 20
12.300000
 40
0.000000
 41
0.000000
 42
1.000000
  0
VERTEX
  8
PG_SOLDERMASK_TOP
 10
180.799986
 20
12.300018
 40
0.000000
 41
0.000000
 42
1.000000
  0
SEQEND
  0
TEXT
  8
RD_SILKSCREEN_TOP
 10
185.500000
 20
15.750000
 11
0.000000
 21
0.000000
 40
0.800000
 41
1.250000
 50
0.000000
  7
STANDARD
 71
0
 72
0
  1
L14
 73
0
  0
POLYLINE
  8
PIN_TOP
 66
1
 70
1
 40
0.000000
 41
0.000000
 39
0.000000
  0
VERTEX
  8
PIN_TOP
 10
212.100000
 20
35.485000
 40
0.000000
 41
0.000000
 42
0.000000
  0
VERTEX
  8
PIN_TOP
 10
210.400000
 20
35.485000
 40
0.000000
 41
0.000000
 42
0.000000
  0
VERTEX
  8
PIN_TOP
 10
210.400000
 20
34.915000
 40
0.000000
 41
0.000000
 42
0.000000
  0
VERTEX
  8
PIN_TOP
 10
209.600000
 20
34.915000
 40
0.000000
 41
0.000000
 42
0.000000
  0
VERTEX
  8
PIN_TOP
 10
209.600000
 20
35.485000
 40
0.000000
 41
0.000000
 42
0.000000
  0
VERTEX
  8
PIN_TOP
 10
210.000000
 20
35.485000
 40
0.000000
 41
0.000000
 42
0.000000
  0
VERTEX
  8
PIN_TOP
 10
210.000000
 20
39.915000
 40
0.000000
 41
0.000000
 42
0.000000
  0
VERTEX
  8
PIN_TOP
 10
209.600000
 20
39.915000
 40
0.000000
 41
0.000000
 42
0.000000
  0
VERTEX
  8
PIN_TOP
 10
209.600000
 20
40.485000
 40
0.000000
 41
0.000000
 42
0.000000
  0
VERTEX
  8
PIN_TOP
 10
210.400000
 20
40.485000
 40
0.000000
 41
0.000000
 42
0.000000
  0
VERTEX
  8
PIN_TOP
 10
210.400000
 20
39.915000
 40
0.000000
 41
0.000000
 42
0.000000
  0
VERTEX
  8
PIN_TOP
 10
212.100000
 20
39.915000
 40
0.000000
 41
0.000000
 42
0.000000
  0
VERTEX
  8
PIN_TOP
 10
212.100000
 20
37.700000
 40
0.000000
 41
0.000000
 42
0.000000
  0
SEQEND
  0
POLYLINE
  8
PIN_SOLDERMASK_TOP
 66
1
 70
1
 40
0.000000
 41
0.000000
 39
0.000000
  0
VERTEX
  8
PIN_SOLDERMASK_TOP
 10
212.100000
 20
35.485000
 40
0.000000
 41
0.000000
 42
0.000000
  0
VERTEX
  8
PIN_SOLDERMASK_TOP
 10
210.400000
 20
35.485000
 40
0.000000
 41
0.000000
 42
0.000000
  0
VERTEX
  8
PIN_SOLDERMASK_TOP
 10
210.400000
 20
34.915000
 40
0.000000
 41
0.000000
 42
0.000000
  0
VERTEX
  8
PIN_SOLDERMASK_TOP
 10
209.600000
 20
34.915000
 40
0.000000
 41
0.000000
 42
0.000000
  0
VERTEX
  8
PIN_SOLDERMASK_TOP
 10
209.600000
 20
35.485000
 40
0.000000
 41
0.000000
 42
0.000000
  0
VERTEX
  8
PIN_SOLDERMASK_TOP
 10
210.000000
 20
35.485000
 40
0.000000
 41
0.000000
 42
0.000000
  0
VERTEX
  8
PIN_SOLDERMASK_TOP
 10
210.000000
 20
39.915000
 40
0.000000
 41
0.000000
 42
0.000000
  0
VERTEX
  8
PIN_SOLDERMASK_TOP
 10
209.600000
 20
39.915000
 40
0.000000
 41
0.000000
 42
0.000000
  0
VERTEX
  8
PIN_SOLDERMASK_TOP
 10
209.600000
 20
40.485000
 40
0.000000
 41
0.000000
 42
0.000000
  0
VERTEX
  8
PIN_SOLDERMASK_TOP
 10
210.400000
 20
40.485000
 40
0.000000
 41
0.000000
 42
0.000000
  0
VERTEX
  8
PIN_SOLDERMASK_TOP
 10
210.400000
 20
39.915000
 40
0.000000
 41
0.000000
 42
0.000000
  0
VERTEX
  8
PIN_SOLDERMASK_TOP
 10
212.100000
 20
39.915000
 40
0.000000
 41
0.000000
 42
0.000000
  0
VERTEX
  8
PIN_SOLDERMASK_TOP
 10
212.100000
 20
37.700000
 40
0.000000
 41
0.000000
 42
0.000000
  0
SEQEND
  0
POLYLINE
  8
PIN_TOP
 66
1
 70
1
 40
0.000000
 41
0.000000
 39
0.000000
  0
VERTEX
  8
PIN_TOP
 10
212.500000
 20
39.915000
 40
0.000000
 41
0.000000
 42
0.000000
  0
VERTEX
  8
PIN_TOP
 10
214.200000
 20
39.915000
 40
0.000000
 41
0.000000
 42
0.000000
  0
VERTEX
  8
PIN_TOP
 10
214.200000
 20
40.485000
 40
0.000000
 41
0.000000
 42
0.000000
  0
VERTEX
  8
PIN_TOP
 10
215.000000
 20
40.485000
 40
0.000000
 41
0.000000
 42
0.000000
  0
VERTEX
  8
PIN_TOP
 10
215.000000
 20
39.915000
 40
0.000000
 41
0.000000
 42
0.000000
  0
VERTEX
  8
PIN_TOP
 10
214.600000
 20
39.915000
 40
0.000000
 41
0.000000
 42
0.000000
  0
VERTEX
  8
PIN_TOP
 10
214.600000
 20
35.485000
 40
0.000000
 41
0.000000
 42
0.000000
  0
VERTEX
  8
PIN_TOP
 10
215.000000
 20
35.485000
 40
0.000000
 41
0.000000
 42
0.000000
  0
VERTEX
  8
PIN_TOP
 10
215.000000
 20
34.915000
 40
0.000000
 41
0.000000
 42
0.000000
  0
VERTEX
  8
PIN_TOP
 10
214.200000
 20
34.915000
 40
0.000000
 41
0.000000
 42
0.000000
  0
VERTEX
  8
PIN_TOP
 10
214.200000
 20
35.485000
 40
0.000000
 41
0.000000
 42
0.000000
  0
VERTEX
  8
PIN_TOP
 10
212.500000
 20
35.485000
 40
0.000000
 41
0.000000
 42
0.000000
  0
VERTEX
  8
PIN_TOP
 10
212.500000
 20
37.700000
 40
0.000000
 41
0.000000
 42
0.000000
  0
SEQEND
  0
POLYLINE
  8
PIN_SOLDERMASK_TOP
 66
1
 70
1
 40
0.000000
 41
0.000000
 39
0.000000
  0
VERTEX
  8
PIN_SOLDERMASK_TOP
 10
212.500000
 20
39.915000
 40
0.000000
 41
0.000000
 42
0.000000
  0
VERTEX
  8
PIN_SOLDERMASK_TOP
 10
214.200000
 20
39.915000
 40
0.000000
 41
0.000000
 42
0.000000
  0
VERTEX
  8
PIN_SOLDERMASK_TOP
 10
214.200000
 20
40.485000
 40
0.000000
 41
0.000000
 42
0.000000
  0
VERTEX
  8
PIN_SOLDERMASK_TOP
 10
215.000000
 20
40.485000
 40
0.000000
 41
0.000000
 42
0.000000
  0
VERTEX
  8
PIN_SOLDERMASK_TOP
 10
215.000000
 20
39.915000
 40
0.000000
 41
0.000000
 42
0.000000
  0
VERTEX
  8
PIN_SOLDERMASK_TOP
 10
214.600000
 20
39.915000
 40
0.000000
 41
0.000000
 42
0.000000
  0
VERTEX
  8
PIN_SOLDERMASK_TOP
 10
214.600000
 20
35.485000
 40
0.000000
 41
0.000000
 42
0.000000
  0
VERTEX
  8
PIN_SOLDERMASK_TOP
 10
215.000000
 20
35.485000
 40
0.000000
 41
0.000000
 42
0.000000
  0
VERTEX
  8
PIN_SOLDERMASK_TOP
 10
215.000000
 20
34.915000
 40
0.000000
 41
0.000000
 42
0.000000
  0
VERTEX
  8
PIN_SOLDERMASK_TOP
 10
214.200000
 20
34.915000
 40
0.000000
 41
0.000000
 42
0.000000
  0
VERTEX
  8
PIN_SOLDERMASK_TOP
 10
214.200000
 20
35.485000
 40
0.000000
 41
0.000000
 42
0.000000
  0
VERTEX
  8
PIN_SOLDERMASK_TOP
 10
212.500000
 20
35.485000
 40
0.000000
 41
0.000000
 42
0.000000
  0
VERTEX
  8
PIN_SOLDERMASK_TOP
 10
212.500000
 20
37.700000
 40
0.000000
 41
0.000000
 42
0.000000
  0
SEQEND
  0
POLYLINE
  8
PG_SOLDERMASK_TOP
 66
1
 70
1
 40
0.000000
 41
0.000000
 39
0.000000
  0
VERTEX
  8
PG_SOLDERMASK_TOP
 10
218.400000
 20
37.700000
 40
0.000000
 41
0.000000
 42
1.000000
  0
VERTEX
  8
PG_SOLDERMASK_TOP
 10
217.599986
 20
37.700018
 40
0.000000
 41
0.000000
 42
1.000000
  0
SEQEND
  0
POLYLINE
  8
PG_SOLDERMASK_TOP
 66
1
 70
1
 40
0.000000
 41
0.000000
 39
0.000000
  0
VERTEX
  8
PG_SOLDERMASK_TOP
 10
207.000000
 20
37.700000
 40
0.000000
 41
0.000000
 42
1.000000
  0
VERTEX
  8
PG_SOLDERMASK_TOP
 10
206.199986
 20
37.700018
 40
0.000000
 41
0.000000
 42
1.000000
  0
SEQEND
  0
TEXT
  8
RD_SILKSCREEN_TOP
 10
210.750000
 20
41.250000
 11
0.000000
 21
0.000000
 40
0.800000
 41
1.250000
 50
0.000000
  7
STANDARD
 71
0
 72
0
  1
L15
 73
0
  0
POLYLINE
  8
PIN_TOP
 66
1
 70
1
 40
0.000000
 41
0.000000
 39
0.000000
  0
VERTEX
  8
PIN_TOP
 10
212.100000
 20
10.085000
 40
0.000000
 41
0.000000
 42
0.000000
  0
VERTEX
  8
PIN_TOP
 10
210.400000
 20
10.085000
 40
0.000000
 41
0.000000
 42
0.000000
  0
VERTEX
  8
PIN_TOP
 10
210.400000
 20
9.515000
 40
0.000000
 41
0.000000
 42
0.000000
  0
VERTEX
  8
PIN_TOP
 10
209.600000
 20
9.515000
 40
0.000000
 41
0.000000
 42
0.000000
  0
VERTEX
  8
PIN_TOP
 10
209.600000
 20
10.085000
 40
0.000000
 41
0.000000
 42
0.000000
  0
VERTEX
  8
PIN_TOP
 10
210.000000
 20
10.085000
 40
0.000000
 41
0.000000
 42
0.000000
  0
VERTEX
  8
PIN_TOP
 10
210.000000
 20
14.515000
 40
0.000000
 41
0.000000
 42
0.000000
  0
VERTEX
  8
PIN_TOP
 10
209.600000
 20
14.515000
 40
0.000000
 41
0.000000
 42
0.000000
  0
VERTEX
  8
PIN_TOP
 10
209.600000
 20
15.085000
 40
0.000000
 41
0.000000
 42
0.000000
  0
VERTEX
  8
PIN_TOP
 10
210.400000
 20
15.085000
 40
0.000000
 41
0.000000
 42
0.000000
  0
VERTEX
  8
PIN_TOP
 10
210.400000
 20
14.515000
 40
0.000000
 41
0.000000
 42
0.000000
  0
VERTEX
  8
PIN_TOP
 10
212.100000
 20
14.515000
 40
0.000000
 41
0.000000
 42
0.000000
  0
VERTEX
  8
PIN_TOP
 10
212.100000
 20
12.300000
 40
0.000000
 41
0.000000
 42
0.000000
  0
SEQEND
  0
POLYLINE
  8
PIN_SOLDERMASK_TOP
 66
1
 70
1
 40
0.000000
 41
0.000000
 39
0.000000
  0
VERTEX
  8
PIN_SOLDERMASK_TOP
 10
212.100000
 20
10.085000
 40
0.000000
 41
0.000000
 42
0.000000
  0
VERTEX
  8
PIN_SOLDERMASK_TOP
 10
210.400000
 20
10.085000
 40
0.000000
 41
0.000000
 42
0.000000
  0
VERTEX
  8
PIN_SOLDERMASK_TOP
 10
210.400000
 20
9.515000
 40
0.000000
 41
0.000000
 42
0.000000
  0
VERTEX
  8
PIN_SOLDERMASK_TOP
 10
209.600000
 20
9.515000
 40
0.000000
 41
0.000000
 42
0.000000
  0
VERTEX
  8
PIN_SOLDERMASK_TOP
 10
209.600000
 20
10.085000
 40
0.000000
 41
0.000000
 42
0.000000
  0
VERTEX
  8
PIN_SOLDERMASK_TOP
 10
210.000000
 20
10.085000
 40
0.000000
 41
0.000000
 42
0.000000
  0
VERTEX
  8
PIN_SOLDERMASK_TOP
 10
210.000000
 20
14.515000
 40
0.000000
 41
0.000000
 42
0.000000
  0
VERTEX
  8
PIN_SOLDERMASK_TOP
 10
209.600000
 20
14.515000
 40
0.000000
 41
0.000000
 42
0.000000
  0
VERTEX
  8
PIN_SOLDERMASK_TOP
 10
209.600000
 20
15.085000
 40
0.000000
 41
0.000000
 42
0.000000
  0
VERTEX
  8
PIN_SOLDERMASK_TOP
 10
210.400000
 20
15.085000
 40
0.000000
 41
0.000000
 42
0.000000
  0
VERTEX
  8
PIN_SOLDERMASK_TOP
 10
210.400000
 20
14.515000
 40
0.000000
 41
0.000000
 42
0.000000
  0
VERTEX
  8
PIN_SOLDERMASK_TOP
 10
212.100000
 20
14.515000
 40
0.000000
 41
0.000000
 42
0.000000
  0
VERTEX
  8
PIN_SOLDERMASK_TOP
 10
212.100000
 20
12.300000
 40
0.000000
 41
0.000000
 42
0.000000
  0
SEQEND
  0
POLYLINE
  8
PIN_TOP
 66
1
 70
1
 40
0.000000
 41
0.000000
 39
0.000000
  0
VERTEX
  8
PIN_TOP
 10
212.500000
 20
14.515000
 40
0.000000
 41
0.000000
 42
0.000000
  0
VERTEX
  8
PIN_TOP
 10
214.200000
 20
14.515000
 40
0.000000
 41
0.000000
 42
0.000000
  0
VERTEX
  8
PIN_TOP
 10
214.200000
 20
15.085000
 40
0.000000
 41
0.000000
 42
0.000000
  0
VERTEX
  8
PIN_TOP
 10
215.000000
 20
15.085000
 40
0.000000
 41
0.000000
 42
0.000000
  0
VERTEX
  8
PIN_TOP
 10
215.000000
 20
14.515000
 40
0.000000
 41
0.000000
 42
0.000000
  0
VERTEX
  8
PIN_TOP
 10
214.600000
 20
14.515000
 40
0.000000
 41
0.000000
 42
0.000000
  0
VERTEX
  8
PIN_TOP
 10
214.600000
 20
10.085000
 40
0.000000
 41
0.000000
 42
0.000000
  0
VERTEX
  8
PIN_TOP
 10
215.000000
 20
10.085000
 40
0.000000
 41
0.000000
 42
0.000000
  0
VERTEX
  8
PIN_TOP
 10
215.000000
 20
9.515000
 40
0.000000
 41
0.000000
 42
0.000000
  0
VERTEX
  8
PIN_TOP
 10
214.200000
 20
9.515000
 40
0.000000
 41
0.000000
 42
0.000000
  0
VERTEX
  8
PIN_TOP
 10
214.200000
 20
10.085000
 40
0.000000
 41
0.000000
 42
0.000000
  0
VERTEX
  8
PIN_TOP
 10
212.500000
 20
10.085000
 40
0.000000
 41
0.000000
 42
0.000000
  0
VERTEX
  8
PIN_TOP
 10
212.500000
 20
12.300000
 40
0.000000
 41
0.000000
 42
0.000000
  0
SEQEND
  0
POLYLINE
  8
PIN_SOLDERMASK_TOP
 66
1
 70
1
 40
0.000000
 41
0.000000
 39
0.000000
  0
VERTEX
  8
PIN_SOLDERMASK_TOP
 10
212.500000
 20
14.515000
 40
0.000000
 41
0.000000
 42
0.000000
  0
VERTEX
  8
PIN_SOLDERMASK_TOP
 10
214.200000
 20
14.515000
 40
0.000000
 41
0.000000
 42
0.000000
  0
VERTEX
  8
PIN_SOLDERMASK_TOP
 10
214.200000
 20
15.085000
 40
0.000000
 41
0.000000
 42
0.000000
  0
VERTEX
  8
PIN_SOLDERMASK_TOP
 10
215.000000
 20
15.085000
 40
0.000000
 41
0.000000
 42
0.000000
  0
VERTEX
  8
PIN_SOLDERMASK_TOP
 10
215.000000
 20
14.515000
 40
0.000000
 41
0.000000
 42
0.000000
  0
VERTEX
  8
PIN_SOLDERMASK_TOP
 10
214.600000
 20
14.515000
 40
0.000000
 41
0.000000
 42
0.000000
  0
VERTEX
  8
PIN_SOLDERMASK_TOP
 10
214.600000
 20
10.085000
 40
0.000000
 41
0.000000
 42
0.000000
  0
VERTEX
  8
PIN_SOLDERMASK_TOP
 10
215.000000
 20
10.085000
 40
0.000000
 41
0.000000
 42
0.000000
  0
VERTEX
  8
PIN_SOLDERMASK_TOP
 10
215.000000
 20
9.515000
 40
0.000000
 41
0.000000
 42
0.000000
  0
VERTEX
  8
PIN_SOLDERMASK_TOP
 10
214.200000
 20
9.515000
 40
0.000000
 41
0.000000
 42
0.000000
  0
VERTEX
  8
PIN_SOLDERMASK_TOP
 10
214.200000
 20
10.085000
 40
0.000000
 41
0.000000
 42
0.000000
  0
VERTEX
  8
PIN_SOLDERMASK_TOP
 10
212.500000
 20
10.085000
 40
0.000000
 41
0.000000
 42
0.000000
  0
VERTEX
  8
PIN_SOLDERMASK_TOP
 10
212.500000
 20
12.300000
 40
0.000000
 41
0.000000
 42
0.000000
  0
SEQEND
  0
POLYLINE
  8
PG_SOLDERMASK_TOP
 66
1
 70
1
 40
0.000000
 41
0.000000
 39
0.000000
  0
VERTEX
  8
PG_SOLDERMASK_TOP
 10
218.400000
 20
12.300000
 40
0.000000
 41
0.000000
 42
1.000000
  0
VERTEX
  8
PG_SOLDERMASK_TOP
 10
217.599986
 20
12.300018
 40
0.000000
 41
0.000000
 42
1.000000
  0
SEQEND
  0
POLYLINE
  8
PG_SOLDERMASK_TOP
 66
1
 70
1
 40
0.000000
 41
0.000000
 39
0.000000
  0
VERTEX
  8
PG_SOLDERMASK_TOP
 10
207.000000
 20
12.300000
 40
0.000000
 41
0.000000
 42
1.000000
  0
VERTEX
  8
PG_SOLDERMASK_TOP
 10
206.199986
 20
12.300018
 40
0.000000
 41
0.000000
 42
1.000000
  0
SEQEND
  0
TEXT
  8
RD_SILKSCREEN_TOP
 10
210.750000
 20
15.750000
 11
0.000000
 21
0.000000
 40
0.800000
 41
1.250000
 50
0.000000
  7
STANDARD
 71
0
 72
0
  1
L16
 73
0
  0
POLYLINE
  8
PIN_TOP
 66
1
 70
1
 40
0.000000
 41
0.000000
 39
0.000000
  0
VERTEX
  8
PIN_TOP
 10
9.500000
 20
38.500000
 40
0.000000
 41
0.000000
 42
0.000000
  0
VERTEX
  8
PIN_TOP
 10
3.500000
 20
38.500000
 40
0.000000
 41
0.000000
 42
0.000000
  0
VERTEX
  8
PIN_TOP
 10
3.500000
 20
40.500000
 40
0.000000
 41
0.000000
 42
0.000000
  0
VERTEX
  8
PIN_TOP
 10
9.500000
 20
40.500000
 40
0.000000
 41
0.000000
 42
0.000000
  0
SEQEND
  0
POLYLINE
  8
PIN_SOLDERMASK_TOP
 66
1
 70
1
 40
0.000000
 41
0.000000
 39
0.000000
  0
VERTEX
  8
PIN_SOLDERMASK_TOP
 10
9.550000
 20
38.450000
 40
0.000000
 41
0.000000
 42
0.000000
  0
VERTEX
  8
PIN_SOLDERMASK_TOP
 10
3.450000
 20
38.450000
 40
0.000000
 41
0.000000
 42
0.000000
  0
VERTEX
  8
PIN_SOLDERMASK_TOP
 10
3.450000
 20
40.550000
 40
0.000000
 41
0.000000
 42
0.000000
  0
VERTEX
  8
PIN_SOLDERMASK_TOP
 10
9.550000
 20
40.550000
 40
0.000000
 41
0.000000
 42
0.000000
  0
SEQEND
  0
POLYLINE
  8
PIN_TOP
 66
1
 70
1
 40
0.000000
 41
0.000000
 39
0.000000
  0
VERTEX
  8
PIN_TOP
 10
14.000000
 20
40.500000
 40
0.000000
 41
0.000000
 42
0.000000
  0
VERTEX
  8
PIN_TOP
 10
17.500000
 20
40.500000
 40
0.000000
 41
0.000000
 42
0.000000
  0
VERTEX
  8
PIN_TOP
 10
17.500000
 20
38.500000
 40
0.000000
 41
0.000000
 42
0.000000
  0
VERTEX
  8
PIN_TOP
 10
14.000000
 20
38.500000
 40
0.000000
 41
0.000000
 42
0.000000
  0
SEQEND
  0
POLYLINE
  8
PIN_SOLDERMASK_TOP
 66
1
 70
1
 40
0.000000
 41
0.000000
 39
0.000000
  0
VERTEX
  8
PIN_SOLDERMASK_TOP
 10
13.950000
 20
40.550000
 40
0.000000
 41
0.000000
 42
0.000000
  0
VERTEX
  8
PIN_SOLDERMASK_TOP
 10
17.550000
 20
40.550000
 40
0.000000
 41
0.000000
 42
0.000000
  0
VERTEX
  8
PIN_SOLDERMASK_TOP
 10
17.550000
 20
38.450000
 40
0.000000
 41
0.000000
 42
0.000000
  0
VERTEX
  8
PIN_SOLDERMASK_TOP
 10
13.950000
 20
38.450000
 40
0.000000
 41
0.000000
 42
0.000000
  0
SEQEND
  0
POLYLINE
  8
PIN_TOP
 66
1
 70
1
 40
0.000000
 41
0.000000
 39
0.000000
  0
VERTEX
  8
PIN_TOP
 10
9.500000
 20
42.500000
 40
0.000000
 41
0.000000
 42
0.000000
  0
VERTEX
  8
PIN_TOP
 10
3.500000
 20
42.500000
 40
0.000000
 41
0.000000
 42
0.000000
  0
VERTEX
  8
PIN_TOP
 10
3.500000
 20
44.500000
 40
0.000000
 41
0.000000
 42
0.000000
  0
VERTEX
  8
PIN_TOP
 10
9.500000
 20
44.500000
 40
0.000000
 41
0.000000
 42
0.000000
  0
SEQEND
  0
POLYLINE
  8
PIN_SOLDERMASK_TOP
 66
1
 70
1
 40
0.000000
 41
0.000000
 39
0.000000
  0
VERTEX
  8
PIN_SOLDERMASK_TOP
 10
9.550000
 20
42.450000
 40
0.000000
 41
0.000000
 42
0.000000
  0
VERTEX
  8
PIN_SOLDERMASK_TOP
 10
3.450000
 20
42.450000
 40
0.000000
 41
0.000000
 42
0.000000
  0
VERTEX
  8
PIN_SOLDERMASK_TOP
 10
3.450000
 20
44.550000
 40
0.000000
 41
0.000000
 42
0.000000
  0
VERTEX
  8
PIN_SOLDERMASK_TOP
 10
9.550000
 20
44.550000
 40
0.000000
 41
0.000000
 42
0.000000
  0
SEQEND
  0
POLYLINE
  8
PIN_TOP
 66
1
 70
1
 40
0.000000
 41
0.000000
 39
0.000000
  0
VERTEX
  8
PIN_TOP
 10
14.000000
 20
44.500000
 40
0.000000
 41
0.000000
 42
0.000000
  0
VERTEX
  8
PIN_TOP
 10
17.500000
 20
44.500000
 40
0.000000
 41
0.000000
 42
0.000000
  0
VERTEX
  8
PIN_TOP
 10
17.500000
 20
42.500000
 40
0.000000
 41
0.000000
 42
0.000000
  0
VERTEX
  8
PIN_TOP
 10
14.000000
 20
42.500000
 40
0.000000
 41
0.000000
 42
0.000000
  0
SEQEND
  0
POLYLINE
  8
PIN_SOLDERMASK_TOP
 66
1
 70
1
 40
0.000000
 41
0.000000
 39
0.000000
  0
VERTEX
  8
PIN_SOLDERMASK_TOP
 10
13.950000
 20
44.550000
 40
0.000000
 41
0.000000
 42
0.000000
  0
VERTEX
  8
PIN_SOLDERMASK_TOP
 10
17.550000
 20
44.550000
 40
0.000000
 41
0.000000
 42
0.000000
  0
VERTEX
  8
PIN_SOLDERMASK_TOP
 10
17.550000
 20
42.450000
 40
0.000000
 41
0.000000
 42
0.000000
  0
VERTEX
  8
PIN_SOLDERMASK_TOP
 10
13.950000
 20
42.450000
 40
0.000000
 41
0.000000
 42
0.000000
  0
SEQEND
  0
POLYLINE
  8
PG_SOLDERMASK_TOP
 66
1
 70
0
 40
0.000000
 41
0.000000
 39
0.000000
  0
VERTEX
  8
PG_SOLDERMASK_TOP
 10
2.850000
 20
37.250000
 40
0.150000
 41
0.150000
 42
0.000000
  0
VERTEX
  8
PG_SOLDERMASK_TOP
 10
2.850000
 20
38.250000
 40
0.150000
 41
0.150000
 42
0.000000
  0
SEQEND
  0
POLYLINE
  8
PG_SOLDERMASK_TOP
 66
1
 70
0
 40
0.000000
 41
0.000000
 39
0.000000
  0
VERTEX
  8
PG_SOLDERMASK_TOP
 10
3.850000
 20
37.250000
 40
0.150000
 41
0.150000
 42
0.000000
  0
VERTEX
  8
PG_SOLDERMASK_TOP
 10
2.850000
 20
37.250000
 40
0.150000
 41
0.150000
 42
0.000000
  0
SEQEND
  0
POLYLINE
  8
PG_SOLDERMASK_TOP
 66
1
 70
0
 40
0.000000
 41
0.000000
 39
0.000000
  0
VERTEX
  8
PG_SOLDERMASK_TOP
 10
2.850000
 20
44.750000
 40
0.150000
 41
0.150000
 42
0.000000
  0
VERTEX
  8
PG_SOLDERMASK_TOP
 10
2.850000
 20
45.750000
 40
0.150000
 41
0.150000
 42
0.000000
  0
SEQEND
  0
POLYLINE
  8
PG_SOLDERMASK_TOP
 66
1
 70
0
 40
0.000000
 41
0.000000
 39
0.000000
  0
VERTEX
  8
PG_SOLDERMASK_TOP
 10
2.850000
 20
45.750000
 40
0.150000
 41
0.150000
 42
0.000000
  0
VERTEX
  8
PG_SOLDERMASK_TOP
 10
3.850000
 20
45.750000
 40
0.150000
 41
0.150000
 42
0.000000
  0
SEQEND
  0
POLYLINE
  8
PG_SOLDERMASK_TOP
 66
1
 70
0
 40
0.000000
 41
0.000000
 39
0.000000
  0
VERTEX
  8
PG_SOLDERMASK_TOP
 10
18.150000
 20
38.250000
 40
0.150000
 41
0.150000
 42
0.000000
  0
VERTEX
  8
PG_SOLDERMASK_TOP
 10
18.150000
 20
37.250000
 40
0.150000
 41
0.150000
 42
0.000000
  0
SEQEND
  0
POLYLINE
  8
PG_SOLDERMASK_TOP
 66
1
 70
0
 40
0.000000
 41
0.000000
 39
0.000000
  0
VERTEX
  8
PG_SOLDERMASK_TOP
 10
18.150000
 20
37.250000
 40
0.150000
 41
0.150000
 42
0.000000
  0
VERTEX
  8
PG_SOLDERMASK_TOP
 10
17.150000
 20
37.250000
 40
0.150000
 41
0.150000
 42
0.000000
  0
SEQEND
  0
POLYLINE
  8
PG_SOLDERMASK_TOP
 66
1
 70
0
 40
0.000000
 41
0.000000
 39
0.000000
  0
VERTEX
  8
PG_SOLDERMASK_TOP
 10
17.150000
 20
45.750000
 40
0.150000
 41
0.150000
 42
0.000000
  0
VERTEX
  8
PG_SOLDERMASK_TOP
 10
18.150000
 20
45.750000
 40
0.150000
 41
0.150000
 42
0.000000
  0
SEQEND
  0
POLYLINE
  8
PG_SOLDERMASK_TOP
 66
1
 70
0
 40
0.000000
 41
0.000000
 39
0.000000
  0
VERTEX
  8
PG_SOLDERMASK_TOP
 10
18.150000
 20
45.750000
 40
0.150000
 41
0.150000
 42
0.000000
  0
VERTEX
  8
PG_SOLDERMASK_TOP
 10
18.150000
 20
44.750000
 40
0.150000
 41
0.150000
 42
0.000000
  0
SEQEND
  0
POLYLINE
  8
PG_SOLDERMASK_TOP
 66
1
 70
1
 40
0.000000
 41
0.000000
 39
0.000000
  0
VERTEX
  8
PG_SOLDERMASK_TOP
 10
19.400000
 20
41.500000
 40
0.000000
 41
0.000000
 42
1.000000
  0
VERTEX
  8
PG_SOLDERMASK_TOP
 10
18.900000
 20
41.500000
 40
0.000000
 41
0.000000
 42
1.000000
  0
SEQEND
  0
POLYLINE
  8
PG_SOLDERMASK_TOP
 66
1
 70
1
 40
0.000000
 41
0.000000
 39
0.000000
  0
VERTEX
  8
PG_SOLDERMASK_TOP
 10
2.100000
 20
41.500000
 40
0.000000
 41
0.000000
 42
1.000000
  0
VERTEX
  8
PG_SOLDERMASK_TOP
 10
1.600000
 20
41.500000
 40
0.000000
 41
0.000000
 42
1.000000
  0
SEQEND
  0
TEXT
  8
RD_SILKSCREEN_TOP
 10
2.750000
 20
46.250000
 11
0.000000
 21
0.000000
 40
0.800000
 41
1.250000
 50
0.000000
  7
STANDARD
 71
0
 72
0
  1
CON+
 73
0
  0
POLYLINE
  8
PIN_TOP
 66
1
 70
1
 40
0.000000
 41
0.000000
 39
0.000000
  0
VERTEX
  8
PIN_TOP
 10
9.500000
 20
29.000000
 40
0.000000
 41
0.000000
 42
0.000000
  0
VERTEX
  8
PIN_TOP
 10
3.500000
 20
29.000000
 40
0.000000
 41
0.000000
 42
0.000000
  0
VERTEX
  8
PIN_TOP
 10
3.500000
 20
31.000000
 40
0.000000
 41
0.000000
 42
0.000000
  0
VERTEX
  8
PIN_TOP
 10
9.500000
 20
31.000000
 40
0.000000
 41
0.000000
 42
0.000000
  0
SEQEND
  0
POLYLINE
  8
PIN_SOLDERMASK_TOP
 66
1
 70
1
 40
0.000000
 41
0.000000
 39
0.000000
  0
VERTEX
  8
PIN_SOLDERMASK_TOP
 10
9.550000
 20
28.950000
 40
0.000000
 41
0.000000
 42
0.000000
  0
VERTEX
  8
PIN_SOLDERMASK_TOP
 10
3.450000
 20
28.950000
 40
0.000000
 41
0.000000
 42
0.000000
  0
VERTEX
  8
PIN_SOLDERMASK_TOP
 10
3.450000
 20
31.050000
 40
0.000000
 41
0.000000
 42
0.000000
  0
VERTEX
  8
PIN_SOLDERMASK_TOP
 10
9.550000
 20
31.050000
 40
0.000000
 41
0.000000
 42
0.000000
  0
SEQEND
  0
POLYLINE
  8
PIN_TOP
 66
1
 70
1
 40
0.000000
 41
0.000000
 39
0.000000
  0
VERTEX
  8
PIN_TOP
 10
14.000000
 20
31.000000
 40
0.000000
 41
0.000000
 42
0.000000
  0
VERTEX
  8
PIN_TOP
 10
17.500000
 20
31.000000
 40
0.000000
 41
0.000000
 42
0.000000
  0
VERTEX
  8
PIN_TOP
 10
17.500000
 20
29.000000
 40
0.000000
 41
0.000000
 42
0.000000
  0
VERTEX
  8
PIN_TOP
 10
14.000000
 20
29.000000
 40
0.000000
 41
0.000000
 42
0.000000
  0
SEQEND
  0
POLYLINE
  8
PIN_SOLDERMASK_TOP
 66
1
 70
1
 40
0.000000
 41
0.000000
 39
0.000000
  0
VERTEX
  8
PIN_SOLDERMASK_TOP
 10
13.950000
 20
31.050000
 40
0.000000
 41
0.000000
 42
0.000000
  0
VERTEX
  8
PIN_SOLDERMASK_TOP
 10
17.550000
 20
31.050000
 40
0.000000
 41
0.000000
 42
0.000000
  0
VERTEX
  8
PIN_SOLDERMASK_TOP
 10
17.550000
 20
28.950000
 40
0.000000
 41
0.000000
 42
0.000000
  0
VERTEX
  8
PIN_SOLDERMASK_TOP
 10
13.950000
 20
28.950000
 40
0.000000
 41
0.000000
 42
0.000000
  0
SEQEND
  0
POLYLINE
  8
PIN_TOP
 66
1
 70
1
 40
0.000000
 41
0.000000
 39
0.000000
  0
VERTEX
  8
PIN_TOP
 10
9.500000
 20
33.000000
 40
0.000000
 41
0.000000
 42
0.000000
  0
VERTEX
  8
PIN_TOP
 10
3.500000
 20
33.000000
 40
0.000000
 41
0.000000
 42
0.000000
  0
VERTEX
  8
PIN_TOP
 10
3.500000
 20
35.000000
 40
0.000000
 41
0.000000
 42
0.000000
  0
VERTEX
  8
PIN_TOP
 10
9.500000
 20
35.000000
 40
0.000000
 41
0.000000
 42
0.000000
  0
SEQEND
  0
POLYLINE
  8
PIN_SOLDERMASK_TOP
 66
1
 70
1
 40
0.000000
 41
0.000000
 39
0.000000
  0
VERTEX
  8
PIN_SOLDERMASK_TOP
 10
9.550000
 20
32.950000
 40
0.000000
 41
0.000000
 42
0.000000
  0
VERTEX
  8
PIN_SOLDERMASK_TOP
 10
3.450000
 20
32.950000
 40
0.000000
 41
0.000000
 42
0.000000
  0
VERTEX
  8
PIN_SOLDERMASK_TOP
 10
3.450000
 20
35.050000
 40
0.000000
 41
0.000000
 42
0.000000
  0
VERTEX
  8
PIN_SOLDERMASK_TOP
 10
9.550000
 20
35.050000
 40
0.000000
 41
0.000000
 42
0.000000
  0
SEQEND
  0
POLYLINE
  8
PIN_TOP
 66
1
 70
1
 40
0.000000
 41
0.000000
 39
0.000000
  0
VERTEX
  8
PIN_TOP
 10
14.000000
 20
35.000000
 40
0.000000
 41
0.000000
 42
0.000000
  0
VERTEX
  8
PIN_TOP
 10
17.500000
 20
35.000000
 40
0.000000
 41
0.000000
 42
0.000000
  0
VERTEX
  8
PIN_TOP
 10
17.500000
 20
33.000000
 40
0.000000
 41
0.000000
 42
0.000000
  0
VERTEX
  8
PIN_TOP
 10
14.000000
 20
33.000000
 40
0.000000
 41
0.000000
 42
0.000000
  0
SEQEND
  0
POLYLINE
  8
PIN_SOLDERMASK_TOP
 66
1
 70
1
 40
0.000000
 41
0.000000
 39
0.000000
  0
VERTEX
  8
PIN_SOLDERMASK_TOP
 10
13.950000
 20
35.050000
 40
0.000000
 41
0.000000
 42
0.000000
  0
VERTEX
  8
PIN_SOLDERMASK_TOP
 10
17.550000
 20
35.050000
 40
0.000000
 41
0.000000
 42
0.000000
  0
VERTEX
  8
PIN_SOLDERMASK_TOP
 10
17.550000
 20
32.950000
 40
0.000000
 41
0.000000
 42
0.000000
  0
VERTEX
  8
PIN_SOLDERMASK_TOP
 10
13.950000
 20
32.950000
 40
0.000000
 41
0.000000
 42
0.000000
  0
SEQEND
  0
POLYLINE
  8
PG_SOLDERMASK_TOP
 66
1
 70
0
 40
0.000000
 41
0.000000
 39
0.000000
  0
VERTEX
  8
PG_SOLDERMASK_TOP
 10
2.850000
 20
27.750000
 40
0.150000
 41
0.150000
 42
0.000000
  0
VERTEX
  8
PG_SOLDERMASK_TOP
 10
2.850000
 20
28.750000
 40
0.150000
 41
0.150000
 42
0.000000
  0
SEQEND
  0
POLYLINE
  8
PG_SOLDERMASK_TOP
 66
1
 70
0
 40
0.000000
 41
0.000000
 39
0.000000
  0
VERTEX
  8
PG_SOLDERMASK_TOP
 10
3.850000
 20
27.750000
 40
0.150000
 41
0.150000
 42
0.000000
  0
VERTEX
  8
PG_SOLDERMASK_TOP
 10
2.850000
 20
27.750000
 40
0.150000
 41
0.150000
 42
0.000000
  0
SEQEND
  0
POLYLINE
  8
PG_SOLDERMASK_TOP
 66
1
 70
0
 40
0.000000
 41
0.000000
 39
0.000000
  0
VERTEX
  8
PG_SOLDERMASK_TOP
 10
2.850000
 20
35.250000
 40
0.150000
 41
0.150000
 42
0.000000
  0
VERTEX
  8
PG_SOLDERMASK_TOP
 10
2.850000
 20
36.250000
 40
0.150000
 41
0.150000
 42
0.000000
  0
SEQEND
  0
POLYLINE
  8
PG_SOLDERMASK_TOP
 66
1
 70
0
 40
0.000000
 41
0.000000
 39
0.000000
  0
VERTEX
  8
PG_SOLDERMASK_TOP
 10
2.850000
 20
36.250000
 40
0.150000
 41
0.150000
 42
0.000000
  0
VERTEX
  8
PG_SOLDERMASK_TOP
 10
3.850000
 20
36.250000
 40
0.150000
 41
0.150000
 42
0.000000
  0
SEQEND
  0
POLYLINE
  8
PG_SOLDERMASK_TOP
 66
1
 70
0
 40
0.000000
 41
0.000000
 39
0.000000
  0
VERTEX
  8
PG_SOLDERMASK_TOP
 10
18.150000
 20
28.750000
 40
0.150000
 41
0.150000
 42
0.000000
  0
VERTEX
  8
PG_SOLDERMASK_TOP
 10
18.150000
 20
27.750000
 40
0.150000
 41
0.150000
 42
0.000000
  0
SEQEND
  0
POLYLINE
  8
PG_SOLDERMASK_TOP
 66
1
 70
0
 40
0.000000
 41
0.000000
 39
0.000000
  0
VERTEX
  8
PG_SOLDERMASK_TOP
 10
18.150000
 20
27.750000
 40
0.150000
 41
0.150000
 42
0.000000
  0
VERTEX
  8
PG_SOLDERMASK_TOP
 10
17.150000
 20
27.750000
 40
0.150000
 41
0.150000
 42
0.000000
  0
SEQEND
  0
POLYLINE
  8
PG_SOLDERMASK_TOP
 66
1
 70
0
 40
0.000000
 41
0.000000
 39
0.000000
  0
VERTEX
  8
PG_SOLDERMASK_TOP
 10
17.150000
 20
36.250000
 40
0.150000
 41
0.150000
 42
0.000000
  0
VERTEX
  8
PG_SOLDERMASK_TOP
 10
18.150000
 20
36.250000
 40
0.150000
 41
0.150000
 42
0.000000
  0
SEQEND
  0
POLYLINE
  8
PG_SOLDERMASK_TOP
 66
1
 70
0
 40
0.000000
 41
0.000000
 39
0.000000
  0
VERTEX
  8
PG_SOLDERMASK_TOP
 10
18.150000
 20
36.250000
 40
0.150000
 41
0.150000
 42
0.000000
  0
VERTEX
  8
PG_SOLDERMASK_TOP
 10
18.150000
 20
35.250000
 40
0.150000
 41
0.150000
 42
0.000000
  0
SEQEND
  0
POLYLINE
  8
PG_SOLDERMASK_TOP
 66
1
 70
1
 40
0.000000
 41
0.000000
 39
0.000000
  0
VERTEX
  8
PG_SOLDERMASK_TOP
 10
19.400000
 20
32.000000
 40
0.000000
 41
0.000000
 42
1.000000
  0
VERTEX
  8
PG_SOLDERMASK_TOP
 10
18.900000
 20
32.000000
 40
0.000000
 41
0.000000
 42
1.000000
  0
SEQEND
  0
POLYLINE
  8
PG_SOLDERMASK_TOP
 66
1
 70
1
 40
0.000000
 41
0.000000
 39
0.000000
  0
VERTEX
  8
PG_SOLDERMASK_TOP
 10
2.100000
 20
32.000000
 40
0.000000
 41
0.000000
 42
1.000000
  0
VERTEX
  8
PG_SOLDERMASK_TOP
 10
1.600000
 20
32.000000
 40
0.000000
 41
0.000000
 42
1.000000
  0
SEQEND
  0
TEXT
  8
RD_SILKSCREEN_TOP
 10
2.750000
 20
26.250000
 11
0.000000
 21
0.000000
 40
0.800000
 41
1.250000
 50
0.000000
  7
STANDARD
 71
0
 72
0
  1
CON-
 73
0
  0
CIRCLE
  8
PIN_TOP
 10
22.500000
 20
34.000000
 40
1.250000
  0
CIRCLE
  8
PIN_SOLDERMASK_TOP
 10
22.500000
 20
34.000000
 40
1.300000
  0
TEXT
  8
RD_SILKSCREEN_TOP
 10
20.750000
 20
36.000000
 11
0.000000
 21
0.000000
 40
0.800000
 41
1.250000
 50
0.000000
  7
STANDARD
 71
0
 72
0
  1
T/P-
 73
0
  0
CIRCLE
  8
PIN_TOP
 10
22.500000
 20
43.500000
 40
1.250000
  0
CIRCLE
  8
PIN_SOLDERMASK_TOP
 10
22.500000
 20
43.500000
 40
1.300000
  0
TEXT
  8
RD_SILKSCREEN_TOP
 10
20.750000
 20
45.500000
 11
0.000000
 21
0.000000
 40
0.800000
 41
1.250000
 50
0.000000
  7
STANDARD
 71
0
 72
0
  1
T/P+
 73
0
  0
POLYLINE
  8
PIN_TOP
 66
1
 70
1
 40
0.000000
 41
0.000000
 39
0.000000
  0
VERTEX
  8
PIN_TOP
 10
17.450000
 20
26.130000
 40
0.000000
 41
0.000000
 42
0.000000
  0
VERTEX
  8
PIN_TOP
 10
17.450000
 20
23.870000
 40
0.000000
 41
0.000000
 42
0.000000
  0
VERTEX
  8
PIN_TOP
 10
15.290000
 20
23.870000
 40
0.000000
 41
0.000000
 42
0.000000
  0
VERTEX
  8
PIN_TOP
 10
15.290000
 20
26.130000
 40
0.000000
 41
0.000000
 42
0.000000
  0
SEQEND
  0
POLYLINE
  8
PIN_SOLDERMASK_TOP
 66
1
 70
1
 40
0.000000
 41
0.000000
 39
0.000000
  0
VERTEX
  8
PIN_SOLDERMASK_TOP
 10
17.500000
 20
26.180000
 40
0.000000
 41
0.000000
 42
0.000000
  0
VERTEX
  8
PIN_SOLDERMASK_TOP
 10
17.500000
 20
23.820000
 40
0.000000
 41
0.000000
 42
0.000000
  0
VERTEX
  8
PIN_SOLDERMASK_TOP
 10
15.240000
 20
23.820000
 40
0.000000
 41
0.000000
 42
0.000000
  0
VERTEX
  8
PIN_SOLDERMASK_TOP
 10
15.240000
 20
26.180000
 40
0.000000
 41
0.000000
 42
0.000000
  0
SEQEND
  0
POLYLINE
  8
PIN_TOP
 66
1
 70
1
 40
0.000000
 41
0.000000
 39
0.000000
  0
VERTEX
  8
PIN_TOP
 10
12.550000
 20
26.130000
 40
0.000000
 41
0.000000
 42
0.000000
  0
VERTEX
  8
PIN_TOP
 10
12.550000
 20
23.870000
 40
0.000000
 41
0.000000
 42
0.000000
  0
VERTEX
  8
PIN_TOP
 10
10.390000
 20
23.870000
 40
0.000000
 41
0.000000
 42
0.000000
  0
VERTEX
  8
PIN_TOP
 10
10.390000
 20
26.130000
 40
0.000000
 41
0.000000
 42
0.000000
  0
SEQEND
  0
POLYLINE
  8
PIN_SOLDERMASK_TOP
 66
1
 70
1
 40
0.000000
 41
0.000000
 39
0.000000
  0
VERTEX
  8
PIN_SOLDERMASK_TOP
 10
12.600000
 20
26.180000
 40
0.000000
 41
0.000000
 42
0.000000
  0
VERTEX
  8
PIN_SOLDERMASK_TOP
 10
12.600000
 20
23.820000
 40
0.000000
 41
0.000000
 42
0.000000
  0
VERTEX
  8
PIN_SOLDERMASK_TOP
 10
10.340000
 20
23.820000
 40
0.000000
 41
0.000000
 42
0.000000
  0
VERTEX
  8
PIN_SOLDERMASK_TOP
 10
10.340000
 20
26.180000
 40
0.000000
 41
0.000000
 42
0.000000
  0
SEQEND
  0
POLYLINE
  8
PG_SILKSCREEN_TOP
 66
1
 70
0
 40
0.000000
 41
0.000000
 39
0.000000
  0
VERTEX
  8
PG_SILKSCREEN_TOP
 10
12.740000
 20
25.000000
 40
0.250000
 41
0.250000
 42
0.000000
  0
VERTEX
  8
PG_SILKSCREEN_TOP
 10
13.400000
 20
25.000000
 40
0.250000
 41
0.250000
 42
0.000000
  0
VERTEX
  8
PG_SILKSCREEN_TOP
 10
13.400000
 20
23.944000
 40
0.250000
 41
0.250000
 42
0.000000
  0
VERTEX
  8
PG_SILKSCREEN_TOP
 10
14.456000
 20
25.000000
 40
0.250000
 41
0.250000
 42
0.000000
  0
VERTEX
  8
PG_SILKSCREEN_TOP
 10
13.400000
 20
26.056000
 40
0.250000
 41
0.250000
 42
0.000000
  0
VERTEX
  8
PG_SILKSCREEN_TOP
 10
13.400000
 20
25.000000
 40
0.250000
 41
0.250000
 42
0.000000
  0
SEQEND
  0
POLYLINE
  8
PG_SILKSCREEN_TOP
 66
1
 70
0
 40
0.000000
 41
0.000000
 39
0.000000
  0
VERTEX
  8
PG_SILKSCREEN_TOP
 10
14.720000
 20
26.056000
 40
0.250000
 41
0.250000
 42
0.000000
  0
VERTEX
  8
PG_SILKSCREEN_TOP
 10
14.720000
 20
23.944000
 40
0.250000
 41
0.250000
 42
0.000000
  0
SEQEND
  0
POLYLINE
  8
PG_SILKSCREEN_TOP
 66
1
 70
0
 40
0.000000
 41
0.000000
 39
0.000000
  0
VERTEX
  8
PG_SILKSCREEN_TOP
 10
17.850000
 20
23.570000
 40
0.250000
 41
0.250000
 42
0.000000
  0
VERTEX
  8
PG_SILKSCREEN_TOP
 10
17.850000
 20
26.430000
 40
0.250000
 41
0.250000
 42
0.000000
  0
SEQEND
  0
POLYLINE
  8
PG_SILKSCREEN_TOP
 66
1
 70
0
 40
0.000000
 41
0.000000
 39
0.000000
  0
VERTEX
  8
PG_SILKSCREEN_TOP
 10
16.370000
 20
26.280000
 40
0.150000
 41
0.150000
 42
0.000000
  0
VERTEX
  8
PG_SILKSCREEN_TOP
 10
16.370000
 20
26.630000
 40
0.150000
 41
0.150000
 42
0.000000
  0
VERTEX
  8
PG_SILKSCREEN_TOP
 10
11.470000
 20
26.630000
 40
0.150000
 41
0.150000
 42
0.000000
  0
VERTEX
  8
PG_SILKSCREEN_TOP
 10
11.470000
 20
26.280000
 40
0.150000
 41
0.150000
 42
0.000000
  0
SEQEND
  0
POLYLINE
  8
PG_SILKSCREEN_TOP
 66
1
 70
0
 40
0.000000
 41
0.000000
 39
0.000000
  0
VERTEX
  8
PG_SILKSCREEN_TOP
 10
11.470000
 20
23.720000
 40
0.150000
 41
0.150000
 42
0.000000
  0
VERTEX
  8
PG_SILKSCREEN_TOP
 10
11.470000
 20
23.370000
 40
0.150000
 41
0.150000
 42
0.000000
  0
VERTEX
  8
PG_SILKSCREEN_TOP
 10
16.370000
 20
23.370000
 40
0.150000
 41
0.150000
 42
0.000000
  0
VERTEX
  8
PG_SILKSCREEN_TOP
 10
16.370000
 20
23.720000
 40
0.150000
 41
0.150000
 42
0.000000
  0
SEQEND
  0
POLYLINE
  8
PG_SILKSCREEN_TOP
 66
1
 70
1
 40
0.000000
 41
0.000000
 39
0.000000
  0
VERTEX
  8
PG_SILKSCREEN_TOP
 10
16.020000
 20
23.470000
 40
0.000000
 41
0.000000
 42
0.000000
  0
VERTEX
  8
PG_SILKSCREEN_TOP
 10
16.020000
 20
23.770000
 40
0.000000
 41
0.000000
 42
0.000000
  0
VERTEX
  8
PG_SILKSCREEN_TOP
 10
15.620000
 20
23.770000
 40
0.000000
 41
0.000000
 42
0.000000
  0
VERTEX
  8
PG_SILKSCREEN_TOP
 10
15.620000
 20
23.470000
 40
0.000000
 41
0.000000
 42
0.000000
  0
SEQEND
  0
POLYLINE
  8
PG_SILKSCREEN_TOP
 66
1
 70
1
 40
0.000000
 41
0.000000
 39
0.000000
  0
VERTEX
  8
PG_SILKSCREEN_TOP
 10
16.020000
 20
26.230000
 40
0.000000
 41
0.000000
 42
0.000000
  0
VERTEX
  8
PG_SILKSCREEN_TOP
 10
16.020000
 20
26.530000
 40
0.000000
 41
0.000000
 42
0.000000
  0
VERTEX
  8
PG_SILKSCREEN_TOP
 10
15.620000
 20
26.530000
 40
0.000000
 41
0.000000
 42
0.000000
  0
VERTEX
  8
PG_SILKSCREEN_TOP
 10
15.620000
 20
26.230000
 40
0.000000
 41
0.000000
 42
0.000000
  0
SEQEND
  0
TEXT
  8
RD_SILKSCREEN_TOP
 10
13.250000
 20
21.750000
 11
0.000000
 21
0.000000
 40
0.800000
 41
1.250000
 50
0.000000
  7
STANDARD
 71
0
 72
0
  1
TD
 73
0
  0
POLYLINE
  8
BG_SILKSCREEN_TOP
 66
1
 70
0
 40
0.000000
 41
0.000000
 39
0.000000
  0
VERTEX
  8
BG_SILKSCREEN_TOP
 10
6.750000
 20
8.000000
 40
0.000000
 41
0.000000
 42
0.000000
  0
VERTEX
  8
BG_SILKSCREEN_TOP
 10
6.750000
 20
15.000000
 40
0.000000
 41
0.000000
 42
0.000000
  0
SEQEND
  0
POLYLINE
  8
BG_SILKSCREEN_TOP
 66
1
 70
0
 40
0.000000
 41
0.000000
 39
0.000000
  0
VERTEX
  8
BG_SILKSCREEN_TOP
 10
18.750000
 20
8.000000
 40
0.000000
 41
0.000000
 42
0.000000
  0
VERTEX
  8
BG_SILKSCREEN_TOP
 10
6.750000
 20
8.000000
 40
0.000000
 41
0.000000
 42
0.000000
  0
SEQEND
  0
POLYLINE
  8
BG_SILKSCREEN_TOP
 66
1
 70
0
 40
0.000000
 41
0.000000
 39
0.000000
  0
VERTEX
  8
BG_SILKSCREEN_TOP
 10
18.750000
 20
15.000000
 40
0.000000
 41
0.000000
 42
0.000000
  0
VERTEX
  8
BG_SILKSCREEN_TOP
 10
18.750000
 20
8.000000
 40
0.000000
 41
0.000000
 42
0.000000
  0
SEQEND
  0
POLYLINE
  8
BG_SILKSCREEN_TOP
 66
1
 70
0
 40
0.000000
 41
0.000000
 39
0.000000
  0
VERTEX
  8
BG_SILKSCREEN_TOP
 10
6.750000
 20
15.000000
 40
0.000000
 41
0.000000
 42
0.000000
  0
VERTEX
  8
BG_SILKSCREEN_TOP
 10
18.750000
 20
15.000000
 40
0.000000
 41
0.000000
 42
0.000000
  0
SEQEND
  0
POLYLINE
  8
MA_NCLEGEND-1-2
 66
1
 70
0
 40
0.000000
 41
0.000000
 39
0.000000
  0
VERTEX
  8
MA_NCLEGEND-1-2
 10
0.000000
 20
-19.300000
 40
0.000000
 41
0.000000
 42
0.000000
  0
VERTEX
  8
MA_NCLEGEND-1-2
 10
42.200000
 20
-19.300000
 40
0.000000
 41
0.000000
 42
0.000000
  0
SEQEND
  0
POLYLINE
  8
MA_NCLEGEND-1-2
 66
1
 70
0
 40
0.000000
 41
0.000000
 39
0.000000
  0
VERTEX
  8
MA_NCLEGEND-1-2
 10
0.000000
 20
-14.500000
 40
0.000000
 41
0.000000
 42
0.000000
  0
VERTEX
  8
MA_NCLEGEND-1-2
 10
42.200000
 20
-14.500000
 40
0.000000
 41
0.000000
 42
0.000000
  0
SEQEND
  0
POLYLINE
  8
MA_NCLEGEND-1-2
 66
1
 70
0
 40
0.000000
 41
0.000000
 39
0.000000
  0
VERTEX
  8
MA_NCLEGEND-1-2
 10
35.500000
 20
-11.500000
 40
0.000000
 41
0.000000
 42
0.000000
  0
VERTEX
  8
MA_NCLEGEND-1-2
 10
35.500000
 20
-24.100000
 40
0.000000
 41
0.000000
 42
0.000000
  0
SEQEND
  0
POLYLINE
  8
MA_NCLEGEND-1-2
 66
1
 70
0
 40
0.000000
 41
0.000000
 39
0.000000
  0
VERTEX
  8
MA_NCLEGEND-1-2
 10
24.400000
 20
-11.500000
 40
0.000000
 41
0.000000
 42
0.000000
  0
VERTEX
  8
MA_NCLEGEND-1-2
 10
24.400000
 20
-24.100000
 40
0.000000
 41
0.000000
 42
0.000000
  0
SEQEND
  0
POLYLINE
  8
MA_NCLEGEND-1-2
 66
1
 70
0
 40
0.000000
 41
0.000000
 39
0.000000
  0
VERTEX
  8
MA_NCLEGEND-1-2
 10
7.800000
 20
-11.500000
 40
0.000000
 41
0.000000
 42
0.000000
  0
VERTEX
  8
MA_NCLEGEND-1-2
 10
7.800000
 20
-24.100000
 40
0.000000
 41
0.000000
 42
0.000000
  0
SEQEND
  0
POLYLINE
  8
MA_NCLEGEND-1-2
 66
1
 70
0
 40
0.000000
 41
0.000000
 39
0.000000
  0
VERTEX
  8
MA_NCLEGEND-1-2
 10
0.000000
 20
-11.500000
 40
0.000000
 41
0.000000
 42
0.000000
  0
VERTEX
  8
MA_NCLEGEND-1-2
 10
42.200000
 20
-11.500000
 40
0.000000
 41
0.000000
 42
0.000000
  0
SEQEND
  0
POLYLINE
  8
MA_NCLEGEND-1-2
 66
1
 70
0
 40
0.000000
 41
0.000000
 39
0.000000
  0
VERTEX
  8
MA_NCLEGEND-1-2
 10
0.000000
 20
-8.500000
 40
0.000000
 41
0.000000
 42
0.000000
  0
VERTEX
  8
MA_NCLEGEND-1-2
 10
42.200000
 20
-8.500000
 40
0.000000
 41
0.000000
 42
0.000000
  0
SEQEND
  0
POLYLINE
  8
BG_OUTLINE
 66
1
 70
0
 40
0.000000
 41
0.000000
 39
0.000000
  0
VERTEX
  8
BG_OUTLINE
 10
0.000000
 20
50.000000
 40
0.100000
 41
0.100000
 42
0.000000
  0
VERTEX
  8
BG_OUTLINE
 10
0.000000
 20
0.000000
 40
0.100000
 41
0.100000
 42
0.000000
  0
VERTEX
  8
BG_OUTLINE
 10
225.000000
 20
0.000000
 40
0.100000
 41
0.100000
 42
0.000000
  0
VERTEX
  8
BG_OUTLINE
 10
225.000000
 20
50.000000
 40
0.100000
 41
0.100000
 42
0.000000
  0
VERTEX
  8
BG_OUTLINE
 10
0.000000
 20
50.000000
 40
0.100000
 41
0.100000
 42
0.000000
  0
SEQEND
  0
POLYLINE
  8
BG_SILKSCREEN_TOP
 66
1
 70
1
 40
0.000000
 41
0.000000
 39
0.000000
  0
VERTEX
  8
BG_SILKSCREEN_TOP
 10
9.139800
 20
18.563600
 40
0.000000
 41
0.000000
 42
0.000000
  0
VERTEX
  8
BG_SILKSCREEN_TOP
 10
9.137200
 20
18.523800
 40
0.000000
 41
0.000000
 42
0.000000
  0
VERTEX
  8
BG_SILKSCREEN_TOP
 10
9.134400
 20
18.483800
 40
0.000000
 41
0.000000
 42
0.000000
  0
VERTEX
  8
BG_SILKSCREEN_TOP
 10
9.131800
 20
18.443800
 40
0.000000
 41
0.000000
 42
0.000000
  0
VERTEX
  8
BG_SILKSCREEN_TOP
 10
9.129000
 20
18.403800
 40
0.000000
 41
0.000000
 42
0.000000
  0
VERTEX
  8
BG_SILKSCREEN_TOP
 10
9.123800
 20
18.323800
 40
0.000000
 41
0.000000
 42
0.000000
  0
VERTEX
  8
BG_SILKSCREEN_TOP
 10
9.121800
 20
18.283800
 40
0.000000
 41
0.000000
 42
0.000000
  0
VERTEX
  8
BG_SILKSCREEN_TOP
 10
9.120000
 20
18.243800
 40
0.000000
 41
0.000000
 42
0.000000
  0
VERTEX
  8
BG_SILKSCREEN_TOP
 10
9.113000
 20
18.043800
 40
0.000000
 41
0.000000
 42
0.000000
  0
VERTEX
  8
BG_SILKSCREEN_TOP
 10
9.111800
 20
18.003600
 40
0.000000
 41
0.000000
 42
0.000000
  0
VERTEX
  8
BG_SILKSCREEN_TOP
 10
9.110400
 20
17.963600
 40
0.000000
 41
0.000000
 42
0.000000
  0
VERTEX
  8
BG_SILKSCREEN_TOP
 10
9.106800
 20
17.843600
 40
0.000000
 41
0.000000
 42
0.000000
  0
VERTEX
  8
BG_SILKSCREEN_TOP
 10
9.105600
 20
17.803400
 40
0.000000
 41
0.000000
 42
0.000000
  0
VERTEX
  8
BG_SILKSCREEN_TOP
 10
9.104600
 20
17.763400
 40
0.000000
 41
0.000000
 42
0.000000
  0
VERTEX
  8
BG_SILKSCREEN_TOP
 10
9.103400
 20
17.723400
 40
0.000000
 41
0.000000
 42
0.000000
  0
VERTEX
  8
BG_SILKSCREEN_TOP
 10
9.101400
 20
17.643400
 40
0.000000
 41
0.000000
 42
0.000000
  0
VERTEX
  8
BG_SILKSCREEN_TOP
 10
9.100400
 20
17.603200
 40
0.000000
 41
0.000000
 42
0.000000
  0
VERTEX
  8
BG_SILKSCREEN_TOP
 10
9.099400
 20
17.563200
 40
0.000000
 41
0.000000
 42
0.000000
  0
VERTEX
  8
BG_SILKSCREEN_TOP
 10
9.098600
 20
17.523200
 40
0.000000
 41
0.000000
 42
0.000000
  0
VERTEX
  8
BG_SILKSCREEN_TOP
 10
9.097600
 20
17.483200
 40
0.000000
 41
0.000000
 42
0.000000
  0
VERTEX
  8
BG_SILKSCREEN_TOP
 10
9.096800
 20
17.443200
 40
0.000000
 41
0.000000
 42
0.000000
  0
VERTEX
  8
BG_SILKSCREEN_TOP
 10
9.095800
 20
17.403000
 40
0.000000
 41
0.000000
 42
0.000000
  0
VERTEX
  8
BG_SILKSCREEN_TOP
 10
9.093400
 20
17.283000
 40
0.000000
 41
0.000000
 42
0.000000
  0
VERTEX
  8
BG_SILKSCREEN_TOP
 10
9.092600
 20
17.242800
 40
0.000000
 41
0.000000
 42
0.000000
  0
VERTEX
  8
BG_SILKSCREEN_TOP
 10
9.091800
 20
17.202800
 40
0.000000
 41
0.000000
 42
0.000000
  0
VERTEX
  8
BG_SILKSCREEN_TOP
 10
9.090800
 20
17.162800
 40
0.000000
 41
0.000000
 42
0.000000
  0
VERTEX
  8
BG_SILKSCREEN_TOP
 10
9.090000
 20
17.122800
 40
0.000000
 41
0.000000
 42
0.000000
  0
VERTEX
  8
BG_SILKSCREEN_TOP
 10
9.089200
 20
17.082600
 40
0.000000
 41
0.000000
 42
0.000000
  0
VERTEX
  8
BG_SILKSCREEN_TOP
 10
9.086000
 20
16.922600
 40
0.000000
 41
0.000000
 42
0.000000
  0
VERTEX
  8
BG_SILKSCREEN_TOP
 10
9.085000
 20
16.882400
 40
0.000000
 41
0.000000
 42
0.000000
  0
VERTEX
  8
BG_SILKSCREEN_TOP
 10
9.082600
 20
16.762400
 40
0.000000
 41
0.000000
 42
0.000000
  0
VERTEX
  8
BG_SILKSCREEN_TOP
 10
9.081800
 20
16.722200
 40
0.000000
 41
0.000000
 42
0.000000
  0
VERTEX
  8
BG_SILKSCREEN_TOP
 10
9.079400
 20
16.602200
 40
0.000000
 41
0.000000
 42
0.000000
  0
VERTEX
  8
BG_SILKSCREEN_TOP
 10
9.588000
 20
16.602200
 40
0.000000
 41
0.000000
 42
0.000000
  0
VERTEX
  8
BG_SILKSCREEN_TOP
 10
9.588200
 20
16.672400
 40
0.000000
 41
0.000000
 42
0.000000
  0
VERTEX
  8
BG_SILKSCREEN_TOP
 10
9.588200
 20
16.742600
 40
0.000000
 41
0.000000
 42
0.000000
  0
VERTEX
  8
BG_SILKSCREEN_TOP
 10
9.588400
 20
16.812600
 40
0.000000
 41
0.000000
 42
0.000000
  0
VERTEX
  8
BG_SILKSCREEN_TOP
 10
9.588800
 20
16.953000
 40
0.000000
 41
0.000000
 42
0.000000
  0
VERTEX
  8
BG_SILKSCREEN_TOP
 10
9.588800
 20
17.023200
 40
0.000000
 41
0.000000
 42
0.000000
  0
VERTEX
  8
BG_SILKSCREEN_TOP
 10
9.589200
 20
17.163600
 40
0.000000
 41
0.000000
 42
0.000000
  0
VERTEX
  8
BG_SILKSCREEN_TOP
 10
9.589200
 20
17.233800
 40
0.000000
 41
0.000000
 42
0.000000
  0
VERTEX
  8
BG_SILKSCREEN_TOP
 10
9.589600
 20
17.374200
 40
0.000000
 41
0.000000
 42
0.000000
  0
VERTEX
  8
BG_SILKSCREEN_TOP
 10
9.589600
 20
17.444400
 40
0.000000
 41
0.000000
 42
0.000000
  0
VERTEX
  8
BG_SILKSCREEN_TOP
 10
9.590000
 20
17.584800
 40
0.000000
 41
0.000000
 42
0.000000
  0
VERTEX
  8
BG_SILKSCREEN_TOP
 10
9.590400
 20
17.655000
 40
0.000000
 41
0.000000
 42
0.000000
  0
VERTEX
  8
BG_SILKSCREEN_TOP
 10
9.591000
 20
17.725200
 40
0.000000
 41
0.000000
 42
0.000000
  0
VERTEX
  8
BG_SILKSCREEN_TOP
 10
9.591600
 20
17.795200
 40
0.000000
 41
0.000000
 42
0.000000
  0
VERTEX
  8
BG_SILKSCREEN_TOP
 10
9.592400
 20
17.865400
 40
0.000000
 41
0.000000
 42
0.000000
  0
VERTEX
  8
BG_SILKSCREEN_TOP
 10
9.593400
 20
17.935600
 40
0.000000
 41
0.000000
 42
0.000000
  0
VERTEX
  8
BG_SILKSCREEN_TOP
 10
9.594800
 20
18.005800
 40
0.000000
 41
0.000000
 42
0.000000
  0
VERTEX
  8
BG_SILKSCREEN_TOP
 10
9.596600
 20
18.076000
 40
0.000000
 41
0.000000
 42
0.000000
  0
VERTEX
  8
BG_SILKSCREEN_TOP
 10
9.598600
 20
18.146200
 40
0.000000
 41
0.000000
 42
0.000000
  0
VERTEX
  8
BG_SILKSCREEN_TOP
 10
9.600800
 20
18.216200
 40
0.000000
 41
0.000000
 42
0.000000
  0
VERTEX
  8
BG_SILKSCREEN_TOP
 10
9.603200
 20
18.286400
 40
0.000000
 41
0.000000
 42
0.000000
  0
VERTEX
  8
BG_SILKSCREEN_TOP
 10
9.617800
 20
18.323200
 40
0.000000
 41
0.000000
 42
0.000000
  0
VERTEX
  8
BG_SILKSCREEN_TOP
 10
9.633400
 20
18.255000
 40
0.000000
 41
0.000000
 42
0.000000
  0
VERTEX
  8
BG_SILKSCREEN_TOP
 10
9.647000
 20
18.186200
 40
0.000000
 41
0.000000
 42
0.000000
  0
VERTEX
  8
BG_SILKSCREEN_TOP
 10
9.660400
 20
18.117600
 40
0.000000
 41
0.000000
 42
0.000000
  0
VERTEX
  8
BG_SILKSCREEN_TOP
 10
9.674000
 20
18.048800
 40
0.000000
 41
0.000000
 42
0.000000
  0
VERTEX
  8
BG_SILKSCREEN_TOP
 10
9.700400
 20
17.911200
 40
0.000000
 41
0.000000
 42
0.000000
  0
VERTEX
  8
BG_SILKSCREEN_TOP
 10
9.726400
 20
17.773600
 40
0.000000
 41
0.000000
 42
0.000000
  0
VERTEX
  8
BG_SILKSCREEN_TOP
 10
9.739200
 20
17.704800
 40
0.000000
 41
0.000000
 42
0.000000
  0
VERTEX
  8
BG_SILKSCREEN_TOP
 10
9.752000
 20
17.635800
 40
0.000000
 41
0.000000
 42
0.000000
  0
VERTEX
  8
BG_SILKSCREEN_TOP
 10
9.764800
 20
17.567000
 40
0.000000
 41
0.000000
 42
0.000000
  0
VERTEX
  8
BG_SILKSCREEN_TOP
 10
9.777400
 20
17.498000
 40
0.000000
 41
0.000000
 42
0.000000
  0
VERTEX
  8
BG_SILKSCREEN_TOP
 10
9.790000
 20
17.429200
 40
0.000000
 41
0.000000
 42
0.000000
  0
VERTEX
  8
BG_SILKSCREEN_TOP
 10
9.802400
 20
17.360200
 40
0.000000
 41
0.000000
 42
0.000000
  0
VERTEX
  8
BG_SILKSCREEN_TOP
 10
9.815000
 20
17.291400
 40
0.000000
 41
0.000000
 42
0.000000
  0
VERTEX
  8
BG_SILKSCREEN_TOP
 10
9.827400
 20
17.222400
 40
0.000000
 41
0.000000
 42
0.000000
  0
VERTEX
  8
BG_SILKSCREEN_TOP
 10
9.840000
 20
17.153400
 40
0.000000
 41
0.000000
 42
0.000000
  0
VERTEX
  8
BG_SILKSCREEN_TOP
 10
9.852600
 20
17.084600
 40
0.000000
 41
0.000000
 42
0.000000
  0
VERTEX
  8
BG_SILKSCREEN_TOP
 10
9.865000
 20
17.015600
 40
0.000000
 41
0.000000
 42
0.000000
  0
VERTEX
  8
BG_SILKSCREEN_TOP
 10
9.877600
 20
16.946800
 40
0.000000
 41
0.000000
 42
0.000000
  0
VERTEX
  8
BG_SILKSCREEN_TOP
 10
9.890000
 20
16.877800
 40
0.000000
 41
0.000000
 42
0.000000
  0
VERTEX
  8
BG_SILKSCREEN_TOP
 10
9.902600
 20
16.808800
 40
0.000000
 41
0.000000
 42
0.000000
  0
VERTEX
  8
BG_SILKSCREEN_TOP
 10
9.915000
 20
16.740000
 40
0.000000
 41
0.000000
 42
0.000000
  0
VERTEX
  8
BG_SILKSCREEN_TOP
 10
9.927600
 20
16.671000
 40
0.000000
 41
0.000000
 42
0.000000
  0
VERTEX
  8
BG_SILKSCREEN_TOP
 10
9.940200
 20
16.602200
 40
0.000000
 41
0.000000
 42
0.000000
  0
VERTEX
  8
BG_SILKSCREEN_TOP
 10
10.449400
 20
16.602200
 40
0.000000
 41
0.000000
 42
0.000000
  0
VERTEX
  8
BG_SILKSCREEN_TOP
 10
10.462000
 20
16.670600
 40
0.000000
 41
0.000000
 42
0.000000
  0
VERTEX
  8
BG_SILKSCREEN_TOP
 10
10.487200
 20
16.807800
 40
0.000000
 41
0.000000
 42
0.000000
  0
VERTEX
  8
BG_SILKSCREEN_TOP
 10
10.499800
 20
16.876200
 40
0.000000
 41
0.000000
 42
0.000000
  0
VERTEX
  8
BG_SILKSCREEN_TOP
 10
10.512400
 20
16.944800
 40
0.000000
 41
0.000000
 42
0.000000
  0
VERTEX
  8
BG_SILKSCREEN_TOP
 10
10.525000
 20
17.013200
 40
0.000000
 41
0.000000
 42
0.000000
  0
VERTEX
  8
BG_SILKSCREEN_TOP
 10
10.550200
 20
17.150400
 40
0.000000
 41
0.000000
 42
0.000000
  0
VERTEX
  8
BG_SILKSCREEN_TOP
 10
10.562800
 20
17.218800
 40
0.000000
 41
0.000000
 42
0.000000
  0
VERTEX
  8
BG_SILKSCREEN_TOP
 10
10.588000
 20
17.356000
 40
0.000000
 41
0.000000
 42
0.000000
  0
VERTEX
  8
BG_SILKSCREEN_TOP
 10
10.600600
 20
17.424400
 40
0.000000
 41
0.000000
 42
0.000000
  0
VERTEX
  8
BG_SILKSCREEN_TOP
 10
10.613200
 20
17.493000
 40
0.000000
 41
0.000000
 42
0.000000
  0
VERTEX
  8
BG_SILKSCREEN_TOP
 10
10.626000
 20
17.561400
 40
0.000000
 41
0.000000
 42
0.000000
  0
VERTEX
  8
BG_SILKSCREEN_TOP
 10
10.638600
 20
17.630000
 40
0.000000
 41
0.000000
 42
0.000000
  0
VERTEX
  8
BG_SILKSCREEN_TOP
 10
10.651400
 20
17.698400
 40
0.000000
 41
0.000000
 42
0.000000
  0
VERTEX
  8
BG_SILKSCREEN_TOP
 10
10.664200
 20
17.767000
 40
0.000000
 41
0.000000
 42
0.000000
  0
VERTEX
  8
BG_SILKSCREEN_TOP
 10
10.690200
 20
17.903800
 40
0.000000
 41
0.000000
 42
0.000000
  0
VERTEX
  8
BG_SILKSCREEN_TOP
 10
10.703400
 20
17.972400
 40
0.000000
 41
0.000000
 42
0.000000
  0
VERTEX
  8
BG_SILKSCREEN_TOP
 10
10.743000
 20
18.177600
 40
0.000000
 41
0.000000
 42
0.000000
  0
VERTEX
  8
BG_SILKSCREEN_TOP
 10
10.756400
 20
18.246000
 40
0.000000
 41
0.000000
 42
0.000000
  0
VERTEX
  8
BG_SILKSCREEN_TOP
 10
10.771600
 20
18.313800
 40
0.000000
 41
0.000000
 42
0.000000
  0
VERTEX
  8
BG_SILKSCREEN_TOP
 10
10.787800
 20
18.273000
 40
0.000000
 41
0.000000
 42
0.000000
  0
VERTEX
  8
BG_SILKSCREEN_TOP
 10
10.790000
 20
18.203400
 40
0.000000
 41
0.000000
 42
0.000000
  0
VERTEX
  8
BG_SILKSCREEN_TOP
 10
10.796000
 20
17.994600
 40
0.000000
 41
0.000000
 42
0.000000
  0
VERTEX
  8
BG_SILKSCREEN_TOP
 10
10.799600
 20
17.855400
 40
0.000000
 41
0.000000
 42
0.000000
  0
VERTEX
  8
BG_SILKSCREEN_TOP
 10
10.802800
 20
17.716200
 40
0.000000
 41
0.000000
 42
0.000000
  0
VERTEX
  8
BG_SILKSCREEN_TOP
 10
10.804200
 20
17.646600
 40
0.000000
 41
0.000000
 42
0.000000
  0
VERTEX
  8
BG_SILKSCREEN_TOP
 10
10.805600
 20
17.576800
 40
0.000000
 41
0.000000
 42
0.000000
  0
VERTEX
  8
BG_SILKSCREEN_TOP
 10
10.806800
 20
17.507200
 40
0.000000
 41
0.000000
 42
0.000000
  0
VERTEX
  8
BG_SILKSCREEN_TOP
 10
10.807800
 20
17.437600
 40
0.000000
 41
0.000000
 42
0.000000
  0
VERTEX
  8
BG_SILKSCREEN_TOP
 10
10.810200
 20
17.228800
 40
0.000000
 41
0.000000
 42
0.000000
  0
VERTEX
  8
BG_SILKSCREEN_TOP
 10
10.810800
 20
17.159000
 40
0.000000
 41
0.000000
 42
0.000000
  0
VERTEX
  8
BG_SILKSCREEN_TOP
 10
10.811400
 20
17.089400
 40
0.000000
 41
0.000000
 42
0.000000
  0
VERTEX
  8
BG_SILKSCREEN_TOP
 10
10.812600
 20
16.880600
 40
0.000000
 41
0.000000
 42
0.000000
  0
VERTEX
  8
BG_SILKSCREEN_TOP
 10
10.812800
 20
16.811000
 40
0.000000
 41
0.000000
 42
0.000000
  0
VERTEX
  8
BG_SILKSCREEN_TOP
 10
10.813000
 20
16.741200
 40
0.000000
 41
0.000000
 42
0.000000
  0
VERTEX
  8
BG_SILKSCREEN_TOP
 10
10.813400
 20
16.602000
 40
0.000000
 41
0.000000
 42
0.000000
  0
VERTEX
  8
BG_SILKSCREEN_TOP
 10
10.942200
 20
16.602000
 40
0.000000
 41
0.000000
 42
0.000000
  0
VERTEX
  8
BG_SILKSCREEN_TOP
 10
10.952200
 20
16.602200
 40
0.000000
 41
0.000000
 42
0.000000
  0
VERTEX
  8
BG_SILKSCREEN_TOP
 10
11.309200
 20
16.602200
 40
0.000000
 41
0.000000
 42
0.000000
  0
VERTEX
  8
BG_SILKSCREEN_TOP
 10
11.308200
 20
16.659200
 40
0.000000
 41
0.000000
 42
0.000000
  0
VERTEX
  8
BG_SILKSCREEN_TOP
 10
11.307200
 20
16.716400
 40
0.000000
 41
0.000000
 42
0.000000
  0
VERTEX
  8
BG_SILKSCREEN_TOP
 10
11.306200
 20
16.773400
 40
0.000000
 41
0.000000
 42
0.000000
  0
VERTEX
  8
BG_SILKSCREEN_TOP
 10
11.305000
 20
16.830600
 40
0.000000
 41
0.000000
 42
0.000000
  0
VERTEX
  8
BG_SILKSCREEN_TOP
 10
11.303000
 20
16.944600
 40
0.000000
 41
0.000000
 42
0.000000
  0
VERTEX
  8
BG_SILKSCREEN_TOP
 10
11.301800
 20
17.001800
 40
0.000000
 41
0.000000
 42
0.000000
  0
VERTEX
  8
BG_SILKSCREEN_TOP
 10
11.300800
 20
17.058800
 40
0.000000
 41
0.000000
 42
0.000000
  0
VERTEX
  8
BG_SILKSCREEN_TOP
 10
11.299800
 20
17.116000
 40
0.000000
 41
0.000000
 42
0.000000
  0
VERTEX
  8
BG_SILKSCREEN_TOP
 10
11.298800
 20
17.173000
 40
0.000000
 41
0.000000
 42
0.000000
  0
VERTEX
  8
BG_SILKSCREEN_TOP
 10
11.297600
 20
17.230200
 40
0.000000
 41
0.000000
 42
0.000000
  0
VERTEX
  8
BG_SILKSCREEN_TOP
 10
11.296600
 20
17.287200
 40
0.000000
 41
0.000000
 42
0.000000
  0
VERTEX
  8
BG_SILKSCREEN_TOP
 10
11.295600
 20
17.344400
 40
0.000000
 41
0.000000
 42
0.000000
  0
VERTEX
  8
BG_SILKSCREEN_TOP
 10
11.294400
 20
17.401400
 40
0.000000
 41
0.000000
 42
0.000000
  0
VERTEX
  8
BG_SILKSCREEN_TOP
 10
11.293400
 20
17.458600
 40
0.000000
 41
0.000000
 42
0.000000
  0
VERTEX
  8
BG_SILKSCREEN_TOP
 10
11.292400
 20
17.515600
 40
0.000000
 41
0.000000
 42
0.000000
  0
VERTEX
  8
BG_SILKSCREEN_TOP
 10
11.291400
 20
17.572800
 40
0.000000
 41
0.000000
 42
0.000000
  0
VERTEX
  8
BG_SILKSCREEN_TOP
 10
11.290200
 20
17.629800
 40
0.000000
 41
0.000000
 42
0.000000
  0
VERTEX
  8
BG_SILKSCREEN_TOP
 10
11.289200
 20
17.687000
 40
0.000000
 41
0.000000
 42
0.000000
  0
VERTEX
  8
BG_SILKSCREEN_TOP
 10
11.286800
 20
17.801000
 40
0.000000
 41
0.000000
 42
0.000000
  0
VERTEX
  8
BG_SILKSCREEN_TOP
 10
11.285600
 20
17.858200
 40
0.000000
 41
0.000000
 42
0.000000
  0
VERTEX
  8
BG_SILKSCREEN_TOP
 10
11.284400
 20
17.915200
 40
0.000000
 41
0.000000
 42
0.000000
  0
VERTEX
  8
BG_SILKSCREEN_TOP
 10
11.283000
 20
17.972400
 40
0.000000
 41
0.000000
 42
0.000000
  0
VERTEX
  8
BG_SILKSCREEN_TOP
 10
11.281600
 20
18.029400
 40
0.000000
 41
0.000000
 42
0.000000
  0
VERTEX
  8
BG_SILKSCREEN_TOP
 10
11.280200
 20
18.086600
 40
0.000000
 41
0.000000
 42
0.000000
  0
VERTEX
  8
BG_SILKSCREEN_TOP
 10
11.278800
 20
18.143600
 40
0.000000
 41
0.000000
 42
0.000000
  0
VERTEX
  8
BG_SILKSCREEN_TOP
 10
11.277200
 20
18.200600
 40
0.000000
 41
0.000000
 42
0.000000
  0
VERTEX
  8
BG_SILKSCREEN_TOP
 10
11.275600
 20
18.257800
 40
0.000000
 41
0.000000
 42
0.000000
  0
VERTEX
  8
BG_SILKSCREEN_TOP
 10
11.273800
 20
18.314800
 40
0.000000
 41
0.000000
 42
0.000000
  0
VERTEX
  8
BG_SILKSCREEN_TOP
 10
11.272200
 20
18.372000
 40
0.000000
 41
0.000000
 42
0.000000
  0
VERTEX
  8
BG_SILKSCREEN_TOP
 10
11.268600
 20
18.486000
 40
0.000000
 41
0.000000
 42
0.000000
  0
VERTEX
  8
BG_SILKSCREEN_TOP
 10
11.267000
 20
18.543200
 40
0.000000
 41
0.000000
 42
0.000000
  0
VERTEX
  8
BG_SILKSCREEN_TOP
 10
11.239600
 20
18.586000
 40
0.000000
 41
0.000000
 42
0.000000
  0
VERTEX
  8
BG_SILKSCREEN_TOP
 10
11.187400
 20
18.592800
 40
0.000000
 41
0.000000
 42
0.000000
  0
VERTEX
  8
BG_SILKSCREEN_TOP
 10
11.135000
 20
18.596200
 40
0.000000
 41
0.000000
 42
0.000000
  0
VERTEX
  8
BG_SILKSCREEN_TOP
 10
11.082400
 20
18.598000
 40
0.000000
 41
0.000000
 42
0.000000
  0
VERTEX
  8
BG_SILKSCREEN_TOP
 10
11.029800
 20
18.598000
 40
0.000000
 41
0.000000
 42
0.000000
  0
VERTEX
  8
BG_SILKSCREEN_TOP
 10
10.977200
 20
18.597600
 40
0.000000
 41
0.000000
 42
0.000000
  0
VERTEX
  8
BG_SILKSCREEN_TOP
 10
10.924800
 20
18.597200
 40
0.000000
 41
0.000000
 42
0.000000
  0
VERTEX
  8
BG_SILKSCREEN_TOP
 10
10.714400
 20
18.593200
 40
0.000000
 41
0.000000
 42
0.000000
  0
VERTEX
  8
BG_SILKSCREEN_TOP
 10
10.662000
 20
18.592200
 40
0.000000
 41
0.000000
 42
0.000000
  0
VERTEX
  8
BG_SILKSCREEN_TOP
 10
10.609400
 20
18.591200
 40
0.000000
 41
0.000000
 42
0.000000
  0
VERTEX
  8
BG_SILKSCREEN_TOP
 10
10.556800
 20
18.590000
 40
0.000000
 41
0.000000
 42
0.000000
  0
VERTEX
  8
BG_SILKSCREEN_TOP
 10
10.451600
 20
18.588000
 40
0.000000
 41
0.000000
 42
0.000000
  0
VERTEX
  8
BG_SILKSCREEN_TOP
 10
10.442000
 20
18.527000
 40
0.000000
 41
0.000000
 42
0.000000
  0
VERTEX
  8
BG_SILKSCREEN_TOP
 10
10.432200
 20
18.466200
 40
0.000000
 41
0.000000
 42
0.000000
  0
VERTEX
  8
BG_SILKSCREEN_TOP
 10
10.393000
 20
18.222200
 40
0.000000
 41
0.000000
 42
0.000000
  0
VERTEX
  8
BG_SILKSCREEN_TOP
 10
10.383200
 20
18.161400
 40
0.000000
 41
0.000000
 42
0.000000
  0
VERTEX
  8
BG_SILKSCREEN_TOP
 10
10.344000
 20
17.917400
 40
0.000000
 41
0.000000
 42
0.000000
  0
VERTEX
  8
BG_SILKSCREEN_TOP
 10
10.334200
 20
17.856600
 40
0.000000
 41
0.000000
 42
0.000000
  0
VERTEX
  8
BG_SILKSCREEN_TOP
 10
10.324400
 20
17.795600
 40
0.000000
 41
0.000000
 42
0.000000
  0
VERTEX
  8
BG_SILKSCREEN_TOP
 10
10.304400
 20
17.673600
 40
0.000000
 41
0.000000
 42
0.000000
  0
VERTEX
  8
BG_SILKSCREEN_TOP
 10
10.294400
 20
17.612800
 40
0.000000
 41
0.000000
 42
0.000000
  0
VERTEX
  8
BG_SILKSCREEN_TOP
 10
10.284200
 20
17.551800
 40
0.000000
 41
0.000000
 42
0.000000
  0
VERTEX
  8
BG_SILKSCREEN_TOP
 10
10.274000
 20
17.491000
 40
0.000000
 41
0.000000
 42
0.000000
  0
VERTEX
  8
BG_SILKSCREEN_TOP
 10
10.263600
 20
17.430200
 40
0.000000
 41
0.000000
 42
0.000000
  0
VERTEX
  8
BG_SILKSCREEN_TOP
 10
10.253000
 20
17.369400
 40
0.000000
 41
0.000000
 42
0.000000
  0
VERTEX
  8
BG_SILKSCREEN_TOP
 10
10.209800
 20
17.126200
 40
0.000000
 41
0.000000
 42
0.000000
  0
VERTEX
  8
BG_SILKSCREEN_TOP
 10
10.183200
 20
17.100400
 40
0.000000
 41
0.000000
 42
0.000000
  0
VERTEX
  8
BG_SILKSCREEN_TOP
 10
10.170200
 20
17.159400
 40
0.000000
 41
0.000000
 42
0.000000
  0
VERTEX
  8
BG_SILKSCREEN_TOP
 10
10.159400
 20
17.218800
 40
0.000000
 41
0.000000
 42
0.000000
  0
VERTEX
  8
BG_SILKSCREEN_TOP
 10
10.149000
 20
17.278200
 40
0.000000
 41
0.000000
 42
0.000000
  0
VERTEX
  8
BG_SILKSCREEN_TOP
 10
10.139200
 20
17.337600
 40
0.000000
 41
0.000000
 42
0.000000
  0
VERTEX
  8
BG_SILKSCREEN_TOP
 10
10.120000
 20
17.456800
 40
0.000000
 41
0.000000
 42
0.000000
  0
VERTEX
  8
BG_SILKSCREEN_TOP
 10
10.110400
 20
17.516200
 40
0.000000
 41
0.000000
 42
0.000000
  0
VERTEX
  8
BG_SILKSCREEN_TOP
 10
10.091200
 20
17.635400
 40
0.000000
 41
0.000000
 42
0.000000
  0
VERTEX
  8
BG_SILKSCREEN_TOP
 10
10.081600
 20
17.694800
 40
0.000000
 41
0.000000
 42
0.000000
  0
VERTEX
  8
BG_SILKSCREEN_TOP
 10
10.052800
 20
17.873600
 40
0.000000
 41
0.000000
 42
0.000000
  0
VERTEX
  8
BG_SILKSCREEN_TOP
 10
10.043200
 20
17.933000
 40
0.000000
 41
0.000000
 42
0.000000
  0
VERTEX
  8
BG_SILKSCREEN_TOP
 10
10.024000
 20
18.052200
 40
0.000000
 41
0.000000
 42
0.000000
  0
VERTEX
  8
BG_SILKSCREEN_TOP
 10
10.014400
 20
18.111600
 40
0.000000
 41
0.000000
 42
0.000000
  0
VERTEX
  8
BG_SILKSCREEN_TOP
 10
9.995200
 20
18.230800
 40
0.000000
 41
0.000000
 42
0.000000
  0
VERTEX
  8
BG_SILKSCREEN_TOP
 10
9.985800
 20
18.290400
 40
0.000000
 41
0.000000
 42
0.000000
  0
VERTEX
  8
BG_SILKSCREEN_TOP
 10
9.976200
 20
18.349800
 40
0.000000
 41
0.000000
 42
0.000000
  0
VERTEX
  8
BG_SILKSCREEN_TOP
 10
9.957000
 20
18.469000
 40
0.000000
 41
0.000000
 42
0.000000
  0
VERTEX
  8
BG_SILKSCREEN_TOP
 10
9.947400
 20
18.528400
 40
0.000000
 41
0.000000
 42
0.000000
  0
VERTEX
  8
BG_SILKSCREEN_TOP
 10
9.937800
 20
18.588000
 40
0.000000
 41
0.000000
 42
0.000000
  0
VERTEX
  8
BG_SILKSCREEN_TOP
 10
9.921800
 20
18.588400
 40
0.000000
 41
0.000000
 42
0.000000
  0
VERTEX
  8
BG_SILKSCREEN_TOP
 10
9.906000
 20
18.588600
 40
0.000000
 41
0.000000
 42
0.000000
  0
VERTEX
  8
BG_SILKSCREEN_TOP
 10
9.890000
 20
18.589000
 40
0.000000
 41
0.000000
 42
0.000000
  0
VERTEX
  8
BG_SILKSCREEN_TOP
 10
9.874200
 20
18.589200
 40
0.000000
 41
0.000000
 42
0.000000
  0
VERTEX
  8
BG_SILKSCREEN_TOP
 10
9.858200
 20
18.589600
 40
0.000000
 41
0.000000
 42
0.000000
  0
VERTEX
  8
BG_SILKSCREEN_TOP
 10
9.842400
 20
18.589800
 40
0.000000
 41
0.000000
 42
0.000000
  0
VERTEX
  8
BG_SILKSCREEN_TOP
 10
9.826400
 20
18.590200
 40
0.000000
 41
0.000000
 42
0.000000
  0
VERTEX
  8
BG_SILKSCREEN_TOP
 10
9.810600
 20
18.590600
 40
0.000000
 41
0.000000
 42
0.000000
  0
VERTEX
  8
BG_SILKSCREEN_TOP
 10
9.794600
 20
18.590800
 40
0.000000
 41
0.000000
 42
0.000000
  0
VERTEX
  8
BG_SILKSCREEN_TOP
 10
9.778800
 20
18.591200
 40
0.000000
 41
0.000000
 42
0.000000
  0
VERTEX
  8
BG_SILKSCREEN_TOP
 10
9.762800
 20
18.591400
 40
0.000000
 41
0.000000
 42
0.000000
  0
VERTEX
  8
BG_SILKSCREEN_TOP
 10
9.747000
 20
18.591800
 40
0.000000
 41
0.000000
 42
0.000000
  0
VERTEX
  8
BG_SILKSCREEN_TOP
 10
9.731000
 20
18.592000
 40
0.000000
 41
0.000000
 42
0.000000
  0
VERTEX
  8
BG_SILKSCREEN_TOP
 10
9.715200
 20
18.592400
 40
0.000000
 41
0.000000
 42
0.000000
  0
VERTEX
  8
BG_SILKSCREEN_TOP
 10
9.699200
 20
18.592600
 40
0.000000
 41
0.000000
 42
0.000000
  0
VERTEX
  8
BG_SILKSCREEN_TOP
 10
9.683200
 20
18.593000
 40
0.000000
 41
0.000000
 42
0.000000
  0
VERTEX
  8
BG_SILKSCREEN_TOP
 10
9.667400
 20
18.593200
 40
0.000000
 41
0.000000
 42
0.000000
  0
VERTEX
  8
BG_SILKSCREEN_TOP
 10
9.651400
 20
18.593600
 40
0.000000
 41
0.000000
 42
0.000000
  0
VERTEX
  8
BG_SILKSCREEN_TOP
 10
9.635600
 20
18.594000
 40
0.000000
 41
0.000000
 42
0.000000
  0
VERTEX
  8
BG_SILKSCREEN_TOP
 10
9.619600
 20
18.594200
 40
0.000000
 41
0.000000
 42
0.000000
  0
VERTEX
  8
BG_SILKSCREEN_TOP
 10
9.603800
 20
18.594600
 40
0.000000
 41
0.000000
 42
0.000000
  0
VERTEX
  8
BG_SILKSCREEN_TOP
 10
9.587800
 20
18.594800
 40
0.000000
 41
0.000000
 42
0.000000
  0
VERTEX
  8
BG_SILKSCREEN_TOP
 10
9.572000
 20
18.595200
 40
0.000000
 41
0.000000
 42
0.000000
  0
VERTEX
  8
BG_SILKSCREEN_TOP
 10
9.556000
 20
18.595400
 40
0.000000
 41
0.000000
 42
0.000000
  0
VERTEX
  8
BG_SILKSCREEN_TOP
 10
9.540200
 20
18.595800
 40
0.000000
 41
0.000000
 42
0.000000
  0
VERTEX
  8
BG_SILKSCREEN_TOP
 10
9.524200
 20
18.596200
 40
0.000000
 41
0.000000
 42
0.000000
  0
VERTEX
  8
BG_SILKSCREEN_TOP
 10
9.508400
 20
18.596400
 40
0.000000
 41
0.000000
 42
0.000000
  0
VERTEX
  8
BG_SILKSCREEN_TOP
 10
9.492400
 20
18.596800
 40
0.000000
 41
0.000000
 42
0.000000
  0
VERTEX
  8
BG_SILKSCREEN_TOP
 10
9.476600
 20
18.597000
 40
0.000000
 41
0.000000
 42
0.000000
  0
VERTEX
  8
BG_SILKSCREEN_TOP
 10
9.460600
 20
18.597400
 40
0.000000
 41
0.000000
 42
0.000000
  0
VERTEX
  8
BG_SILKSCREEN_TOP
 10
9.444800
 20
18.597600
 40
0.000000
 41
0.000000
 42
0.000000
  0
VERTEX
  8
BG_SILKSCREEN_TOP
 10
9.428800
 20
18.598000
 40
0.000000
 41
0.000000
 42
0.000000
  0
VERTEX
  8
BG_SILKSCREEN_TOP
 10
9.413000
 20
18.598400
 40
0.000000
 41
0.000000
 42
0.000000
  0
VERTEX
  8
BG_SILKSCREEN_TOP
 10
9.397000
 20
18.598600
 40
0.000000
 41
0.000000
 42
0.000000
  0
VERTEX
  8
BG_SILKSCREEN_TOP
 10
9.381000
 20
18.599000
 40
0.000000
 41
0.000000
 42
0.000000
  0
VERTEX
  8
BG_SILKSCREEN_TOP
 10
9.365200
 20
18.599200
 40
0.000000
 41
0.000000
 42
0.000000
  0
VERTEX
  8
BG_SILKSCREEN_TOP
 10
9.349200
 20
18.599600
 40
0.000000
 41
0.000000
 42
0.000000
  0
VERTEX
  8
BG_SILKSCREEN_TOP
 10
9.333400
 20
18.599800
 40
0.000000
 41
0.000000
 42
0.000000
  0
VERTEX
  8
BG_SILKSCREEN_TOP
 10
9.317400
 20
18.600200
 40
0.000000
 41
0.000000
 42
0.000000
  0
VERTEX
  8
BG_SILKSCREEN_TOP
 10
9.301600
 20
18.600600
 40
0.000000
 41
0.000000
 42
0.000000
  0
VERTEX
  8
BG_SILKSCREEN_TOP
 10
9.285600
 20
18.600800
 40
0.000000
 41
0.000000
 42
0.000000
  0
VERTEX
  8
BG_SILKSCREEN_TOP
 10
9.269800
 20
18.601200
 40
0.000000
 41
0.000000
 42
0.000000
  0
VERTEX
  8
BG_SILKSCREEN_TOP
 10
9.253800
 20
18.601400
 40
0.000000
 41
0.000000
 42
0.000000
  0
VERTEX
  8
BG_SILKSCREEN_TOP
 10
9.238000
 20
18.601800
 40
0.000000
 41
0.000000
 42
0.000000
  0
VERTEX
  8
BG_SILKSCREEN_TOP
 10
9.222000
 20
18.602000
 40
0.000000
 41
0.000000
 42
0.000000
  0
VERTEX
  8
BG_SILKSCREEN_TOP
 10
9.206200
 20
18.602400
 40
0.000000
 41
0.000000
 42
0.000000
  0
VERTEX
  8
BG_SILKSCREEN_TOP
 10
9.190200
 20
18.602800
 40
0.000000
 41
0.000000
 42
0.000000
  0
VERTEX
  8
BG_SILKSCREEN_TOP
 10
9.174400
 20
18.603000
 40
0.000000
 41
0.000000
 42
0.000000
  0
VERTEX
  8
BG_SILKSCREEN_TOP
 10
9.158400
 20
18.603400
 40
0.000000
 41
0.000000
 42
0.000000
  0
VERTEX
  8
BG_SILKSCREEN_TOP
 10
9.142600
 20
18.603600
 40
0.000000
 41
0.000000
 42
0.000000
  0
SEQEND
  0
POLYLINE
  8
BG_SILKSCREEN_TOP
 66
1
 70
1
 40
0.000000
 41
0.000000
 39
0.000000
  0
VERTEX
  8
BG_SILKSCREEN_TOP
 10
12.299600
 20
18.628200
 40
0.000000
 41
0.000000
 42
0.000000
  0
VERTEX
  8
BG_SILKSCREEN_TOP
 10
12.233200
 20
18.612200
 40
0.000000
 41
0.000000
 42
0.000000
  0
VERTEX
  8
BG_SILKSCREEN_TOP
 10
12.168400
 20
18.591200
 40
0.000000
 41
0.000000
 42
0.000000
  0
VERTEX
  8
BG_SILKSCREEN_TOP
 10
12.105400
 20
18.565200
 40
0.000000
 41
0.000000
 42
0.000000
  0
VERTEX
  8
BG_SILKSCREEN_TOP
 10
12.046400
 20
18.532600
 40
0.000000
 41
0.000000
 42
0.000000
  0
VERTEX
  8
BG_SILKSCREEN_TOP
 10
11.993200
 20
18.491000
 40
0.000000
 41
0.000000
 42
0.000000
  0
VERTEX
  8
BG_SILKSCREEN_TOP
 10
11.947400
 20
18.442000
 40
0.000000
 41
0.000000
 42
0.000000
  0
VERTEX
  8
BG_SILKSCREEN_TOP
 10
11.910400
 20
18.387000
 40
0.000000
 41
0.000000
 42
0.000000
  0
VERTEX
  8
BG_SILKSCREEN_TOP
 10
11.882200
 20
18.326600
 40
0.000000
 41
0.000000
 42
0.000000
  0
VERTEX
  8
BG_SILKSCREEN_TOP
 10
11.863600
 20
18.263400
 40
0.000000
 41
0.000000
 42
0.000000
  0
VERTEX
  8
BG_SILKSCREEN_TOP
 10
11.851000
 20
18.199000
 40
0.000000
 41
0.000000
 42
0.000000
  0
VERTEX
  8
BG_SILKSCREEN_TOP
 10
11.843600
 20
18.133600
 40
0.000000
 41
0.000000
 42
0.000000
  0
VERTEX
  8
BG_SILKSCREEN_TOP
 10
11.841600
 20
18.068000
 40
0.000000
 41
0.000000
 42
0.000000
  0
VERTEX
  8
BG_SILKSCREEN_TOP
 10
11.845000
 20
18.002800
 40
0.000000
 41
0.000000
 42
0.000000
  0
VERTEX
  8
BG_SILKSCREEN_TOP
 10
11.854200
 20
17.938200
 40
0.000000
 41
0.000000
 42
0.000000
  0
VERTEX
  8
BG_SILKSCREEN_TOP
 10
11.869200
 20
17.875000
 40
0.000000
 41
0.000000
 42
0.000000
  0
VERTEX
  8
BG_SILKSCREEN_TOP
 10
11.893400
 20
17.815000
 40
0.000000
 41
0.000000
 42
0.000000
  0
VERTEX
  8
BG_SILKSCREEN_TOP
 10
11.928200
 20
17.760600
 40
0.000000
 41
0.000000
 42
0.000000
  0
VERTEX
  8
BG_SILKSCREEN_TOP
 10
11.970400
 20
17.712600
 40
0.000000
 41
0.000000
 42
0.000000
  0
VERTEX
  8
BG_SILKSCREEN_TOP
 10
12.017200
 20
17.669000
 40
0.000000
 41
0.000000
 42
0.000000
  0
VERTEX
  8
BG_SILKSCREEN_TOP
 10
12.067800
 20
17.630200
 40
0.000000
 41
0.000000
 42
0.000000
  0
VERTEX
  8
BG_SILKSCREEN_TOP
 10
12.121000
 20
17.595200
 40
0.000000
 41
0.000000
 42
0.000000
  0
VERTEX
  8
BG_SILKSCREEN_TOP
 10
12.174600
 20
17.561200
 40
0.000000
 41
0.000000
 42
0.000000
  0
VERTEX
  8
BG_SILKSCREEN_TOP
 10
12.228800
 20
17.527800
 40
0.000000
 41
0.000000
 42
0.000000
  0
VERTEX
  8
BG_SILKSCREEN_TOP
 10
12.283400
 20
17.495000
 40
0.000000
 41
0.000000
 42
0.000000
  0
VERTEX
  8
BG_SILKSCREEN_TOP
 10
12.338200
 20
17.462800
 40
0.000000
 41
0.000000
 42
0.000000
  0
VERTEX
  8
BG_SILKSCREEN_TOP
 10
12.393600
 20
17.431400
 40
0.000000
 41
0.000000
 42
0.000000
  0
VERTEX
  8
BG_SILKSCREEN_TOP
 10
12.448400
 20
17.399200
 40
0.000000
 41
0.000000
 42
0.000000
  0
VERTEX
  8
BG_SILKSCREEN_TOP
 10
12.502800
 20
17.366000
 40
0.000000
 41
0.000000
 42
0.000000
  0
VERTEX
  8
BG_SILKSCREEN_TOP
 10
12.556600
 20
17.332200
 40
0.000000
 41
0.000000
 42
0.000000
  0
VERTEX
  8
BG_SILKSCREEN_TOP
 10
12.608400
 20
17.295600
 40
0.000000
 41
0.000000
 42
0.000000
  0
VERTEX
  8
BG_SILKSCREEN_TOP
 10
12.656200
 20
17.254000
 40
0.000000
 41
0.000000
 42
0.000000
  0
VERTEX
  8
BG_SILKSCREEN_TOP
 10
12.697800
 20
17.206600
 40
0.000000
 41
0.000000
 42
0.000000
  0
VERTEX
  8
BG_SILKSCREEN_TOP
 10
12.727200
 20
17.151400
 40
0.000000
 41
0.000000
 42
0.000000
  0
VERTEX
  8
BG_SILKSCREEN_TOP
 10
12.741800
 20
17.091000
 40
0.000000
 41
0.000000
 42
0.000000
  0
VERTEX
  8
BG_SILKSCREEN_TOP
 10
12.739600
 20
17.029600
 40
0.000000
 41
0.000000
 42
0.000000
  0
VERTEX
  8
BG_SILKSCREEN_TOP
 10
12.720400
 20
16.971800
 40
0.000000
 41
0.000000
 42
0.000000
  0
VERTEX
  8
BG_SILKSCREEN_TOP
 10
12.682000
 20
16.925800
 40
0.000000
 41
0.000000
 42
0.000000
  0
VERTEX
  8
BG_SILKSCREEN_TOP
 10
12.630000
 20
16.897400
 40
0.000000
 41
0.000000
 42
0.000000
  0
VERTEX
  8
BG_SILKSCREEN_TOP
 10
12.572600
 20
16.885600
 40
0.000000
 41
0.000000
 42
0.000000
  0
VERTEX
  8
BG_SILKSCREEN_TOP
 10
12.514000
 20
16.885400
 40
0.000000
 41
0.000000
 42
0.000000
  0
VERTEX
  8
BG_SILKSCREEN_TOP
 10
12.456200
 20
16.893000
 40
0.000000
 41
0.000000
 42
0.000000
  0
VERTEX
  8
BG_SILKSCREEN_TOP
 10
12.404800
 20
16.917400
 40
0.000000
 41
0.000000
 42
0.000000
  0
VERTEX
  8
BG_SILKSCREEN_TOP
 10
12.373000
 20
16.963000
 40
0.000000
 41
0.000000
 42
0.000000
  0
VERTEX
  8
BG_SILKSCREEN_TOP
 10
12.359600
 20
17.016600
 40
0.000000
 41
0.000000
 42
0.000000
  0
VERTEX
  8
BG_SILKSCREEN_TOP
 10
12.351000
 20
17.071200
 40
0.000000
 41
0.000000
 42
0.000000
  0
VERTEX
  8
BG_SILKSCREEN_TOP
 10
12.345400
 20
17.126200
 40
0.000000
 41
0.000000
 42
0.000000
  0
VERTEX
  8
BG_SILKSCREEN_TOP
 10
12.340000
 20
17.181000
 40
0.000000
 41
0.000000
 42
0.000000
  0
VERTEX
  8
BG_SILKSCREEN_TOP
 10
12.334400
 20
17.236000
 40
0.000000
 41
0.000000
 42
0.000000
  0
VERTEX
  8
BG_SILKSCREEN_TOP
 10
12.324000
 20
17.236200
 40
0.000000
 41
0.000000
 42
0.000000
  0
VERTEX
  8
BG_SILKSCREEN_TOP
 10
12.303200
 20
17.237000
 40
0.000000
 41
0.000000
 42
0.000000
  0
VERTEX
  8
BG_SILKSCREEN_TOP
 10
12.292800
 20
17.237200
 40
0.000000
 41
0.000000
 42
0.000000
  0
VERTEX
  8
BG_SILKSCREEN_TOP
 10
12.282400
 20
17.237600
 40
0.000000
 41
0.000000
 42
0.000000
  0
VERTEX
  8
BG_SILKSCREEN_TOP
 10
12.272000
 20
17.237800
 40
0.000000
 41
0.000000
 42
0.000000
  0
VERTEX
  8
BG_SILKSCREEN_TOP
 10
12.261400
 20
17.238200
 40
0.000000
 41
0.000000
 42
0.000000
  0
VERTEX
  8
BG_SILKSCREEN_TOP
 10
12.251000
 20
17.238600
 40
0.000000
 41
0.000000
 42
0.000000
  0
VERTEX
  8
BG_SILKSCREEN_TOP
 10
12.240600
 20
17.238800
 40
0.000000
 41
0.000000
 42
0.000000
  0
VERTEX
  8
BG_SILKSCREEN_TOP
 10
12.230200
 20
17.239200
 40
0.000000
 41
0.000000
 42
0.000000
  0
VERTEX
  8
BG_SILKSCREEN_TOP
 10
12.219800
 20
17.239400
 40
0.000000
 41
0.000000
 42
0.000000
  0
VERTEX
  8
BG_SILKSCREEN_TOP
 10
12.199000
 20
17.240200
 40
0.000000
 41
0.000000
 42
0.000000
  0
VERTEX
  8
BG_SILKSCREEN_TOP
 10
12.188600
 20
17.240400
 40
0.000000
 41
0.000000
 42
0.000000
  0
VERTEX
  8
BG_SILKSCREEN_TOP
 10
12.178200
 20
17.240800
 40
0.000000
 41
0.000000
 42
0.000000
  0
VERTEX
  8
BG_SILKSCREEN_TOP
 10
12.167600
 20
17.241200
 40
0.000000
 41
0.000000
 42
0.000000
  0
VERTEX
  8
BG_SILKSCREEN_TOP
 10
12.157200
 20
17.241400
 40
0.000000
 41
0.000000
 42
0.000000
  0
VERTEX
  8
BG_SILKSCREEN_TOP
 10
12.146800
 20
17.241800
 40
0.000000
 41
0.000000
 42
0.000000
  0
VERTEX
  8
BG_SILKSCREEN_TOP
 10
12.136400
 20
17.242000
 40
0.000000
 41
0.000000
 42
0.000000
  0
VERTEX
  8
BG_SILKSCREEN_TOP
 10
12.115600
 20
17.242800
 40
0.000000
 41
0.000000
 42
0.000000
  0
VERTEX
  8
BG_SILKSCREEN_TOP
 10
12.105200
 20
17.243000
 40
0.000000
 41
0.000000
 42
0.000000
  0
VERTEX
  8
BG_SILKSCREEN_TOP
 10
12.084400
 20
17.243800
 40
0.000000
 41
0.000000
 42
0.000000
  0
VERTEX
  8
BG_SILKSCREEN_TOP
 10
12.073800
 20
17.244000
 40
0.000000
 41
0.000000
 42
0.000000
  0
VERTEX
  8
BG_SILKSCREEN_TOP
 10
12.063400
 20
17.244400
 40
0.000000
 41
0.000000
 42
0.000000
  0
VERTEX
  8
BG_SILKSCREEN_TOP
 10
12.053000
 20
17.244600
 40
0.000000
 41
0.000000
 42
0.000000
  0
VERTEX
  8
BG_SILKSCREEN_TOP
 10
12.032200
 20
17.245400
 40
0.000000
 41
0.000000
 42
0.000000
  0
VERTEX
  8
BG_SILKSCREEN_TOP
 10
12.021800
 20
17.245600
 40
0.000000
 41
0.000000
 42
0.000000
  0
VERTEX
  8
BG_SILKSCREEN_TOP
 10
12.011400
 20
17.246000
 40
0.000000
 41
0.000000
 42
0.000000
  0
VERTEX
  8
BG_SILKSCREEN_TOP
 10
12.001000
 20
17.246200
 40
0.000000
 41
0.000000
 42
0.000000
  0
VERTEX
  8
BG_SILKSCREEN_TOP
 10
11.990600
 20
17.246600
 40
0.000000
 41
0.000000
 42
0.000000
  0
VERTEX
  8
BG_SILKSCREEN_TOP
 10
11.980000
 20
17.247000
 40
0.000000
 41
0.000000
 42
0.000000
  0
VERTEX
  8
BG_SILKSCREEN_TOP
 10
11.969600
 20
17.247200
 40
0.000000
 41
0.000000
 42
0.000000
  0
VERTEX
  8
BG_SILKSCREEN_TOP
 10
11.948800
 20
17.248000
 40
0.000000
 41
0.000000
 42
0.000000
  0
VERTEX
  8
BG_SILKSCREEN_TOP
 10
11.938400
 20
17.248200
 40
0.000000
 41
0.000000
 42
0.000000
  0
VERTEX
  8
BG_SILKSCREEN_TOP
 10
11.928000
 20
17.248600
 40
0.000000
 41
0.000000
 42
0.000000
  0
VERTEX
  8
BG_SILKSCREEN_TOP
 10
11.917600
 20
17.248800
 40
0.000000
 41
0.000000
 42
0.000000
  0
VERTEX
  8
BG_SILKSCREEN_TOP
 10
11.907200
 20
17.249200
 40
0.000000
 41
0.000000
 42
0.000000
  0
VERTEX
  8
BG_SILKSCREEN_TOP
 10
11.896600
 20
17.249600
 40
0.000000
 41
0.000000
 42
0.000000
  0
VERTEX
  8
BG_SILKSCREEN_TOP
 10
11.886200
 20
17.249800
 40
0.000000
 41
0.000000
 42
0.000000
  0
VERTEX
  8
BG_SILKSCREEN_TOP
 10
11.865400
 20
17.250600
 40
0.000000
 41
0.000000
 42
0.000000
  0
VERTEX
  8
BG_SILKSCREEN_TOP
 10
11.855000
 20
17.250800
 40
0.000000
 41
0.000000
 42
0.000000
  0
VERTEX
  8
BG_SILKSCREEN_TOP
 10
11.844600
 20
17.251200
 40
0.000000
 41
0.000000
 42
0.000000
  0
VERTEX
  8
BG_SILKSCREEN_TOP
 10
11.834200
 20
17.251400
 40
0.000000
 41
0.000000
 42
0.000000
  0
VERTEX
  8
BG_SILKSCREEN_TOP
 10
11.813400
 20
17.252200
 40
0.000000
 41
0.000000
 42
0.000000
  0
VERTEX
  8
BG_SILKSCREEN_TOP
 10
11.813800
 20
17.155000
 40
0.000000
 41
0.000000
 42
0.000000
  0
VERTEX
  8
BG_SILKSCREEN_TOP
 10
11.815600
 20
17.058200
 40
0.000000
 41
0.000000
 42
0.000000
  0
VERTEX
  8
BG_SILKSCREEN_TOP
 10
11.828600
 20
16.962200
 40
0.000000
 41
0.000000
 42
0.000000
  0
VERTEX
  8
BG_SILKSCREEN_TOP
 10
11.856000
 20
16.869800
 40
0.000000
 41
0.000000
 42
0.000000
  0
VERTEX
  8
BG_SILKSCREEN_TOP
 10
11.898800
 20
16.784000
 40
0.000000
 41
0.000000
 42
0.000000
  0
VERTEX
  8
BG_SILKSCREEN_TOP
 10
11.957000
 20
16.708000
 40
0.000000
 41
0.000000
 42
0.000000
  0
VERTEX
  8
BG_SILKSCREEN_TOP
 10
12.030000
 20
16.647000
 40
0.000000
 41
0.000000
 42
0.000000
  0
VERTEX
  8
BG_SILKSCREEN_TOP
 10
12.112000
 20
16.600600
 40
0.000000
 41
0.000000
 42
0.000000
  0
VERTEX
  8
BG_SILKSCREEN_TOP
 10
12.199800
 20
16.565400
 40
0.000000
 41
0.000000
 42
0.000000
  0
VERTEX
  8
BG_SILKSCREEN_TOP
 10
12.291200
 20
16.542400
 40
0.000000
 41
0.000000
 42
0.000000
  0
VERTEX
  8
BG_SILKSCREEN_TOP
 10
12.383600
 20
16.529400
 40
0.000000
 41
0.000000
 42
0.000000
  0
VERTEX
  8
BG_SILKSCREEN_TOP
 10
12.477000
 20
16.523200
 40
0.000000
 41
0.000000
 42
0.000000
  0
VERTEX
  8
BG_SILKSCREEN_TOP
 10
12.570400
 20
16.523600
 40
0.000000
 41
0.000000
 42
0.000000
  0
VERTEX
  8
BG_SILKSCREEN_TOP
 10
12.663200
 20
16.530600
 40
0.000000
 41
0.000000
 42
0.000000
  0
VERTEX
  8
BG_SILKSCREEN_TOP
 10
12.755000
 20
16.544800
 40
0.000000
 41
0.000000
 42
0.000000
  0
VERTEX
  8
BG_SILKSCREEN_TOP
 10
12.845600
 20
16.566000
 40
0.000000
 41
0.000000
 42
0.000000
  0
VERTEX
  8
BG_SILKSCREEN_TOP
 10
12.934000
 20
16.594200
 40
0.000000
 41
0.000000
 42
0.000000
  0
VERTEX
  8
BG_SILKSCREEN_TOP
 10
13.016600
 20
16.632600
 40
0.000000
 41
0.000000
 42
0.000000
  0
VERTEX
  8
BG_SILKSCREEN_TOP
 10
13.089200
 20
16.688400
 40
0.000000
 41
0.000000
 42
0.000000
  0
VERTEX
  8
BG_SILKSCREEN_TOP
 10
13.147400
 20
16.757800
 40
0.000000
 41
0.000000
 42
0.000000
  0
VERTEX
  8
BG_SILKSCREEN_TOP
 10
13.184200
 20
16.839400
 40
0.000000
 41
0.000000
 42
0.000000
  0
VERTEX
  8
BG_SILKSCREEN_TOP
 10
13.211000
 20
16.924800
 40
0.000000
 41
0.000000
 42
0.000000
  0
VERTEX
  8
BG_SILKSCREEN_TOP
 10
13.229400
 20
17.012200
 40
0.000000
 41
0.000000
 42
0.000000
  0
VERTEX
  8
BG_SILKSCREEN_TOP
 10
13.238400
 20
17.100800
 40
0.000000
 41
0.000000
 42
0.000000
  0
VERTEX
  8
BG_SILKSCREEN_TOP
 10
13.238000
 20
17.190000
 40
0.000000
 41
0.000000
 42
0.000000
  0
VERTEX
  8
BG_SILKSCREEN_TOP
 10
13.227400
 20
17.277800
 40
0.000000
 41
0.000000
 42
0.000000
  0
VERTEX
  8
BG_SILKSCREEN_TOP
 10
13.201400
 20
17.362000
 40
0.000000
 41
0.000000
 42
0.000000
  0
VERTEX
  8
BG_SILKSCREEN_TOP
 10
13.159800
 20
17.439200
 40
0.000000
 41
0.000000
 42
0.000000
  0
VERTEX
  8
BG_SILKSCREEN_TOP
 10
13.106800
 20
17.507800
 40
0.000000
 41
0.000000
 42
0.000000
  0
VERTEX
  8
BG_SILKSCREEN_TOP
 10
13.045200
 20
17.569000
 40
0.000000
 41
0.000000
 42
0.000000
  0
VERTEX
  8
BG_SILKSCREEN_TOP
 10
12.976800
 20
17.621800
 40
0.000000
 41
0.000000
 42
0.000000
  0
VERTEX
  8
BG_SILKSCREEN_TOP
 10
12.905400
 20
17.670200
 40
0.000000
 41
0.000000
 42
0.000000
  0
VERTEX
  8
BG_SILKSCREEN_TOP
 10
12.832400
 20
17.716200
 40
0.000000
 41
0.000000
 42
0.000000
  0
VERTEX
  8
BG_SILKSCREEN_TOP
 10
12.758200
 20
17.760000
 40
0.000000
 41
0.000000
 42
0.000000
  0
VERTEX
  8
BG_SILKSCREEN_TOP
 10
12.682800
 20
17.801600
 40
0.000000
 41
0.000000
 42
0.000000
  0
VERTEX
  8
BG_SILKSCREEN_TOP
 10
12.607400
 20
17.843400
 40
0.000000
 41
0.000000
 42
0.000000
  0
VERTEX
  8
BG_SILKSCREEN_TOP
 10
12.533200
 20
17.887200
 40
0.000000
 41
0.000000
 42
0.000000
  0
VERTEX
  8
BG_SILKSCREEN_TOP
 10
12.461400
 20
17.934400
 40
0.000000
 41
0.000000
 42
0.000000
  0
VERTEX
  8
BG_SILKSCREEN_TOP
 10
12.395600
 20
17.989400
 40
0.000000
 41
0.000000
 42
0.000000
  0
VERTEX
  8
BG_SILKSCREEN_TOP
 10
12.342600
 20
18.056400
 40
0.000000
 41
0.000000
 42
0.000000
  0
VERTEX
  8
BG_SILKSCREEN_TOP
 10
12.320400
 20
18.136600
 40
0.000000
 41
0.000000
 42
0.000000
  0
VERTEX
  8
BG_SILKSCREEN_TOP
 10
12.344600
 20
18.213800
 40
0.000000
 41
0.000000
 42
0.000000
  0
VERTEX
  8
BG_SILKSCREEN_TOP
 10
12.397600
 20
18.274800
 40
0.000000
 41
0.000000
 42
0.000000
  0
VERTEX
  8
BG_SILKSCREEN_TOP
 10
12.466800
 20
18.314800
 40
0.000000
 41
0.000000
 42
0.000000
  0
VERTEX
  8
BG_SILKSCREEN_TOP
 10
12.544600
 20
18.315400
 40
0.000000
 41
0.000000
 42
0.000000
  0
VERTEX
  8
BG_SILKSCREEN_TOP
 10
12.612600
 20
18.279400
 40
0.000000
 41
0.000000
 42
0.000000
  0
VERTEX
  8
BG_SILKSCREEN_TOP
 10
12.666400
 20
18.225200
 40
0.000000
 41
0.000000
 42
0.000000
  0
VERTEX
  8
BG_SILKSCREEN_TOP
 10
12.703600
 20
18.159200
 40
0.000000
 41
0.000000
 42
0.000000
  0
VERTEX
  8
BG_SILKSCREEN_TOP
 10
12.714800
 20
18.085200
 40
0.000000
 41
0.000000
 42
0.000000
  0
VERTEX
  8
BG_SILKSCREEN_TOP
 10
12.714800
 20
18.010600
 40
0.000000
 41
0.000000
 42
0.000000
  0
VERTEX
  8
BG_SILKSCREEN_TOP
 10
13.193600
 20
18.010600
 40
0.000000
 41
0.000000
 42
0.000000
  0
VERTEX
  8
BG_SILKSCREEN_TOP
 10
13.193600
 20
18.130800
 40
0.000000
 41
0.000000
 42
0.000000
  0
VERTEX
  8
BG_SILKSCREEN_TOP
 10
13.193400
 20
18.154800
 40
0.000000
 41
0.000000
 42
0.000000
  0
VERTEX
  8
BG_SILKSCREEN_TOP
 10
13.192200
 20
18.178600
 40
0.000000
 41
0.000000
 42
0.000000
  0
VERTEX
  8
BG_SILKSCREEN_TOP
 10
13.190200
 20
18.202600
 40
0.000000
 41
0.000000
 42
0.000000
  0
VERTEX
  8
BG_SILKSCREEN_TOP
 10
13.187400
 20
18.226400
 40
0.000000
 41
0.000000
 42
0.000000
  0
VERTEX
  8
BG_SILKSCREEN_TOP
 10
13.183600
 20
18.250200
 40
0.000000
 41
0.000000
 42
0.000000
  0
VERTEX
  8
BG_SILKSCREEN_TOP
 10
13.178800
 20
18.273600
 40
0.000000
 41
0.000000
 42
0.000000
  0
VERTEX
  8
BG_SILKSCREEN_TOP
 10
13.173400
 20
18.297000
 40
0.000000
 41
0.000000
 42
0.000000
  0
VERTEX
  8
BG_SILKSCREEN_TOP
 10
13.166800
 20
18.319800
 40
0.000000
 41
0.000000
 42
0.000000
  0
VERTEX
  8
BG_SILKSCREEN_TOP
 10
13.159000
 20
18.342200
 40
0.000000
 41
0.000000
 42
0.000000
  0
VERTEX
  8
BG_SILKSCREEN_TOP
 10
13.150000
 20
18.364200
 40
0.000000
 41
0.000000
 42
0.000000
  0
VERTEX
  8
BG_SILKSCREEN_TOP
 10
13.139600
 20
18.385800
 40
0.000000
 41
0.000000
 42
0.000000
  0
VERTEX
  8
BG_SILKSCREEN_TOP
 10
13.128200
 20
18.406600
 40
0.000000
 41
0.000000
 42
0.000000
  0
VERTEX
  8
BG_SILKSCREEN_TOP
 10
13.115400
 20
18.426600
 40
0.000000
 41
0.000000
 42
0.000000
  0
VERTEX
  8
BG_SILKSCREEN_TOP
 10
13.101800
 20
18.445800
 40
0.000000
 41
0.000000
 42
0.000000
  0
VERTEX
  8
BG_SILKSCREEN_TOP
 10
13.087000
 20
18.464000
 40
0.000000
 41
0.000000
 42
0.000000
  0
VERTEX
  8
BG_SILKSCREEN_TOP
 10
13.071000
 20
18.481400
 40
0.000000
 41
0.000000
 42
0.000000
  0
VERTEX
  8
BG_SILKSCREEN_TOP
 10
13.054200
 20
18.497800
 40
0.000000
 41
0.000000
 42
0.000000
  0
VERTEX
  8
BG_SILKSCREEN_TOP
 10
13.036200
 20
18.513000
 40
0.000000
 41
0.000000
 42
0.000000
  0
VERTEX
  8
BG_SILKSCREEN_TOP
 10
13.017600
 20
18.527200
 40
0.000000
 41
0.000000
 42
0.000000
  0
VERTEX
  8
BG_SILKSCREEN_TOP
 10
12.998200
 20
18.540200
 40
0.000000
 41
0.000000
 42
0.000000
  0
VERTEX
  8
BG_SILKSCREEN_TOP
 10
12.978200
 20
18.552200
 40
0.000000
 41
0.000000
 42
0.000000
  0
VERTEX
  8
BG_SILKSCREEN_TOP
 10
12.957600
 20
18.563200
 40
0.000000
 41
0.000000
 42
0.000000
  0
VERTEX
  8
BG_SILKSCREEN_TOP
 10
12.936600
 20
18.573400
 40
0.000000
 41
0.000000
 42
0.000000
  0
VERTEX
  8
BG_SILKSCREEN_TOP
 10
12.915200
 20
18.582400
 40
0.000000
 41
0.000000
 42
0.000000
  0
VERTEX
  8
BG_SILKSCREEN_TOP
 10
12.893400
 20
18.590600
 40
0.000000
 41
0.000000
 42
0.000000
  0
VERTEX
  8
BG_SILKSCREEN_TOP
 10
12.871200
 20
18.597600
 40
0.000000
 41
0.000000
 42
0.000000
  0
VERTEX
  8
BG_SILKSCREEN_TOP
 10
12.848800
 20
18.603800
 40
0.000000
 41
0.000000
 42
0.000000
  0
VERTEX
  8
BG_SILKSCREEN_TOP
 10
12.826400
 20
18.609200
 40
0.000000
 41
0.000000
 42
0.000000
  0
VERTEX
  8
BG_SILKSCREEN_TOP
 10
12.803800
 20
18.614400
 40
0.000000
 41
0.000000
 42
0.000000
  0
VERTEX
  8
BG_SILKSCREEN_TOP
 10
12.781000
 20
18.618800
 40
0.000000
 41
0.000000
 42
0.000000
  0
VERTEX
  8
BG_SILKSCREEN_TOP
 10
12.758200
 20
18.623000
 40
0.000000
 41
0.000000
 42
0.000000
  0
VERTEX
  8
BG_SILKSCREEN_TOP
 10
12.735400
 20
18.626600
 40
0.000000
 41
0.000000
 42
0.000000
  0
VERTEX
  8
BG_SILKSCREEN_TOP
 10
12.712400
 20
18.629800
 40
0.000000
 41
0.000000
 42
0.000000
  0
VERTEX
  8
BG_SILKSCREEN_TOP
 10
12.689400
 20
18.632600
 40
0.000000
 41
0.000000
 42
0.000000
  0
VERTEX
  8
BG_SILKSCREEN_TOP
 10
12.666400
 20
18.635200
 40
0.000000
 41
0.000000
 42
0.000000
  0
VERTEX
  8
BG_SILKSCREEN_TOP
 10
12.643400
 20
18.637400
 40
0.000000
 41
0.000000
 42
0.000000
  0
VERTEX
  8
BG_SILKSCREEN_TOP
 10
12.620400
 20
18.639400
 40
0.000000
 41
0.000000
 42
0.000000
  0
VERTEX
  8
BG_SILKSCREEN_TOP
 10
12.597200
 20
18.641000
 40
0.000000
 41
0.000000
 42
0.000000
  0
VERTEX
  8
BG_SILKSCREEN_TOP
 10
12.574200
 20
18.642200
 40
0.000000
 41
0.000000
 42
0.000000
  0
VERTEX
  8
BG_SILKSCREEN_TOP
 10
12.551000
 20
18.643200
 40
0.000000
 41
0.000000
 42
0.000000
  0
VERTEX
  8
BG_SILKSCREEN_TOP
 10
12.527800
 20
18.644000
 40
0.000000
 41
0.000000
 42
0.000000
  0
VERTEX
  8
BG_SILKSCREEN_TOP
 10
12.504800
 20
18.644400
 40
0.000000
 41
0.000000
 42
0.000000
  0
VERTEX
  8
BG_SILKSCREEN_TOP
 10
12.481600
 20
18.644400
 40
0.000000
 41
0.000000
 42
0.000000
  0
VERTEX
  8
BG_SILKSCREEN_TOP
 10
12.458400
 20
18.644200
 40
0.000000
 41
0.000000
 42
0.000000
  0
VERTEX
  8
BG_SILKSCREEN_TOP
 10
12.435400
 20
18.643600
 40
0.000000
 41
0.000000
 42
0.000000
  0
VERTEX
  8
BG_SILKSCREEN_TOP
 10
12.367200
 20
18.638600
 40
0.000000
 41
0.000000
 42
0.000000
  0
SEQEND
  0
POLYLINE
  8
BG_SILKSCREEN_TOP
 66
1
 70
1
 40
0.000000
 41
0.000000
 39
0.000000
  0
VERTEX
  8
BG_SILKSCREEN_TOP
 10
5.632600
 20
18.607600
 40
0.000000
 41
0.000000
 42
0.000000
  0
VERTEX
  8
BG_SILKSCREEN_TOP
 10
5.570800
 20
18.581200
 40
0.000000
 41
0.000000
 42
0.000000
  0
VERTEX
  8
BG_SILKSCREEN_TOP
 10
5.511800
 20
18.550000
 40
0.000000
 41
0.000000
 42
0.000000
  0
VERTEX
  8
BG_SILKSCREEN_TOP
 10
5.457200
 20
18.512000
 40
0.000000
 41
0.000000
 42
0.000000
  0
VERTEX
  8
BG_SILKSCREEN_TOP
 10
5.408400
 20
18.466400
 40
0.000000
 41
0.000000
 42
0.000000
  0
VERTEX
  8
BG_SILKSCREEN_TOP
 10
5.367200
 20
18.415200
 40
0.000000
 41
0.000000
 42
0.000000
  0
VERTEX
  8
BG_SILKSCREEN_TOP
 10
5.333800
 20
18.358400
 40
0.000000
 41
0.000000
 42
0.000000
  0
VERTEX
  8
BG_SILKSCREEN_TOP
 10
5.309400
 20
18.297400
 40
0.000000
 41
0.000000
 42
0.000000
  0
VERTEX
  8
BG_SILKSCREEN_TOP
 10
5.293000
 20
18.234400
 40
0.000000
 41
0.000000
 42
0.000000
  0
VERTEX
  8
BG_SILKSCREEN_TOP
 10
5.282800
 20
18.170200
 40
0.000000
 41
0.000000
 42
0.000000
  0
VERTEX
  8
BG_SILKSCREEN_TOP
 10
5.278400
 20
18.105200
 40
0.000000
 41
0.000000
 42
0.000000
  0
VERTEX
  8
BG_SILKSCREEN_TOP
 10
5.280000
 20
18.040600
 40
0.000000
 41
0.000000
 42
0.000000
  0
VERTEX
  8
BG_SILKSCREEN_TOP
 10
5.288000
 20
17.976400
 40
0.000000
 41
0.000000
 42
0.000000
  0
VERTEX
  8
BG_SILKSCREEN_TOP
 10
5.302200
 20
17.913400
 40
0.000000
 41
0.000000
 42
0.000000
  0
VERTEX
  8
BG_SILKSCREEN_TOP
 10
5.323800
 20
17.853400
 40
0.000000
 41
0.000000
 42
0.000000
  0
VERTEX
  8
BG_SILKSCREEN_TOP
 10
5.354800
 20
17.797200
 40
0.000000
 41
0.000000
 42
0.000000
  0
VERTEX
  8
BG_SILKSCREEN_TOP
 10
5.393600
 20
17.746800
 40
0.000000
 41
0.000000
 42
0.000000
  0
VERTEX
  8
BG_SILKSCREEN_TOP
 10
5.437200
 20
17.700800
 40
0.000000
 41
0.000000
 42
0.000000
  0
VERTEX
  8
BG_SILKSCREEN_TOP
 10
5.485000
 20
17.659200
 40
0.000000
 41
0.000000
 42
0.000000
  0
VERTEX
  8
BG_SILKSCREEN_TOP
 10
5.536200
 20
17.622000
 40
0.000000
 41
0.000000
 42
0.000000
  0
VERTEX
  8
BG_SILKSCREEN_TOP
 10
5.588600
 20
17.586800
 40
0.000000
 41
0.000000
 42
0.000000
  0
VERTEX
  8
BG_SILKSCREEN_TOP
 10
5.641600
 20
17.552600
 40
0.000000
 41
0.000000
 42
0.000000
  0
VERTEX
  8
BG_SILKSCREEN_TOP
 10
5.695200
 20
17.519200
 40
0.000000
 41
0.000000
 42
0.000000
  0
VERTEX
  8
BG_SILKSCREEN_TOP
 10
5.749400
 20
17.487000
 40
0.000000
 41
0.000000
 42
0.000000
  0
VERTEX
  8
BG_SILKSCREEN_TOP
 10
5.804000
 20
17.455400
 40
0.000000
 41
0.000000
 42
0.000000
  0
VERTEX
  8
BG_SILKSCREEN_TOP
 10
5.858200
 20
17.423000
 40
0.000000
 41
0.000000
 42
0.000000
  0
VERTEX
  8
BG_SILKSCREEN_TOP
 10
5.911800
 20
17.389800
 40
0.000000
 41
0.000000
 42
0.000000
  0
VERTEX
  8
BG_SILKSCREEN_TOP
 10
5.965000
 20
17.355600
 40
0.000000
 41
0.000000
 42
0.000000
  0
VERTEX
  8
BG_SILKSCREEN_TOP
 10
6.017400
 20
17.320600
 40
0.000000
 41
0.000000
 42
0.000000
  0
VERTEX
  8
BG_SILKSCREEN_TOP
 10
6.068400
 20
17.284000
 40
0.000000
 41
0.000000
 42
0.000000
  0
VERTEX
  8
BG_SILKSCREEN_TOP
 10
6.115200
 20
17.242200
 40
0.000000
 41
0.000000
 42
0.000000
  0
VERTEX
  8
BG_SILKSCREEN_TOP
 10
6.156200
 20
17.194800
 40
0.000000
 41
0.000000
 42
0.000000
  0
VERTEX
  8
BG_SILKSCREEN_TOP
 10
6.189200
 20
17.143200
 40
0.000000
 41
0.000000
 42
0.000000
  0
VERTEX
  8
BG_SILKSCREEN_TOP
 10
6.203600
 20
17.084000
 40
0.000000
 41
0.000000
 42
0.000000
  0
VERTEX
  8
BG_SILKSCREEN_TOP
 10
6.196200
 20
17.025200
 40
0.000000
 41
0.000000
 42
0.000000
  0
VERTEX
  8
BG_SILKSCREEN_TOP
 10
6.173600
 20
16.971400
 40
0.000000
 41
0.000000
 42
0.000000
  0
VERTEX
  8
BG_SILKSCREEN_TOP
 10
6.138600
 20
16.924800
 40
0.000000
 41
0.000000
 42
0.000000
  0
VERTEX
  8
BG_SILKSCREEN_TOP
 10
6.095600
 20
16.886600
 40
0.000000
 41
0.000000
 42
0.000000
  0
VERTEX
  8
BG_SILKSCREEN_TOP
 10
6.044400
 20
16.863200
 40
0.000000
 41
0.000000
 42
0.000000
  0
VERTEX
  8
BG_SILKSCREEN_TOP
 10
5.988200
 20
16.864200
 40
0.000000
 41
0.000000
 42
0.000000
  0
VERTEX
  8
BG_SILKSCREEN_TOP
 10
5.933800
 20
16.877400
 40
0.000000
 41
0.000000
 42
0.000000
  0
VERTEX
  8
BG_SILKSCREEN_TOP
 10
5.883600
 20
16.901600
 40
0.000000
 41
0.000000
 42
0.000000
  0
VERTEX
  8
BG_SILKSCREEN_TOP
 10
5.842000
 20
16.937600
 40
0.000000
 41
0.000000
 42
0.000000
  0
VERTEX
  8
BG_SILKSCREEN_TOP
 10
5.812400
 20
16.983400
 40
0.000000
 41
0.000000
 42
0.000000
  0
VERTEX
  8
BG_SILKSCREEN_TOP
 10
5.795200
 20
17.035000
 40
0.000000
 41
0.000000
 42
0.000000
  0
VERTEX
  8
BG_SILKSCREEN_TOP
 10
5.787000
 20
17.088400
 40
0.000000
 41
0.000000
 42
0.000000
  0
VERTEX
  8
BG_SILKSCREEN_TOP
 10
5.785200
 20
17.142200
 40
0.000000
 41
0.000000
 42
0.000000
  0
VERTEX
  8
BG_SILKSCREEN_TOP
 10
5.785200
 20
17.250000
 40
0.000000
 41
0.000000
 42
0.000000
  0
VERTEX
  8
BG_SILKSCREEN_TOP
 10
5.250000
 20
17.250000
 40
0.000000
 41
0.000000
 42
0.000000
  0
VERTEX
  8
BG_SILKSCREEN_TOP
 10
5.250000
 20
17.153200
 40
0.000000
 41
0.000000
 42
0.000000
  0
VERTEX
  8
BG_SILKSCREEN_TOP
 10
5.253800
 20
17.056600
 40
0.000000
 41
0.000000
 42
0.000000
  0
VERTEX
  8
BG_SILKSCREEN_TOP
 10
5.269600
 20
16.961400
 40
0.000000
 41
0.000000
 42
0.000000
  0
VERTEX
  8
BG_SILKSCREEN_TOP
 10
5.298800
 20
16.869600
 40
0.000000
 41
0.000000
 42
0.000000
  0
VERTEX
  8
BG_SILKSCREEN_TOP
 10
5.342200
 20
16.784000
 40
0.000000
 41
0.000000
 42
0.000000
  0
VERTEX
  8
BG_SILKSCREEN_TOP
 10
5.400000
 20
16.707800
 40
0.000000
 41
0.000000
 42
0.000000
  0
VERTEX
  8
BG_SILKSCREEN_TOP
 10
5.471800
 20
16.645400
 40
0.000000
 41
0.000000
 42
0.000000
  0
VERTEX
  8
BG_SILKSCREEN_TOP
 10
5.554400
 20
16.598800
 40
0.000000
 41
0.000000
 42
0.000000
  0
VERTEX
  8
BG_SILKSCREEN_TOP
 10
5.641600
 20
16.562000
 40
0.000000
 41
0.000000
 42
0.000000
  0
VERTEX
  8
BG_SILKSCREEN_TOP
 10
5.731400
 20
16.533000
 40
0.000000
 41
0.000000
 42
0.000000
  0
VERTEX
  8
BG_SILKSCREEN_TOP
 10
5.823400
 20
16.511200
 40
0.000000
 41
0.000000
 42
0.000000
  0
VERTEX
  8
BG_SILKSCREEN_TOP
 10
5.916600
 20
16.497200
 40
0.000000
 41
0.000000
 42
0.000000
  0
VERTEX
  8
BG_SILKSCREEN_TOP
 10
6.010600
 20
16.495400
 40
0.000000
 41
0.000000
 42
0.000000
  0
VERTEX
  8
BG_SILKSCREEN_TOP
 10
6.103800
 20
16.506000
 40
0.000000
 41
0.000000
 42
0.000000
  0
VERTEX
  8
BG_SILKSCREEN_TOP
 10
6.196000
 20
16.522600
 40
0.000000
 41
0.000000
 42
0.000000
  0
VERTEX
  8
BG_SILKSCREEN_TOP
 10
6.287000
 20
16.545000
 40
0.000000
 41
0.000000
 42
0.000000
  0
VERTEX
  8
BG_SILKSCREEN_TOP
 10
6.375600
 20
16.573200
 40
0.000000
 41
0.000000
 42
0.000000
  0
VERTEX
  8
BG_SILKSCREEN_TOP
 10
6.458800
 20
16.614400
 40
0.000000
 41
0.000000
 42
0.000000
  0
VERTEX
  8
BG_SILKSCREEN_TOP
 10
6.533000
 20
16.669800
 40
0.000000
 41
0.000000
 42
0.000000
  0
VERTEX
  8
BG_SILKSCREEN_TOP
 10
6.594200
 20
16.736800
 40
0.000000
 41
0.000000
 42
0.000000
  0
VERTEX
  8
BG_SILKSCREEN_TOP
 10
6.640000
 20
16.815800
 40
0.000000
 41
0.000000
 42
0.000000
  0
VERTEX
  8
BG_SILKSCREEN_TOP
 10
6.668400
 20
16.901200
 40
0.000000
 41
0.000000
 42
0.000000
  0
VERTEX
  8
BG_SILKSCREEN_TOP
 10
6.686400
 20
16.989000
 40
0.000000
 41
0.000000
 42
0.000000
  0
VERTEX
  8
BG_SILKSCREEN_TOP
 10
6.695600
 20
17.078200
 40
0.000000
 41
0.000000
 42
0.000000
  0
VERTEX
  8
BG_SILKSCREEN_TOP
 10
6.695800
 20
17.167400
 40
0.000000
 41
0.000000
 42
0.000000
  0
VERTEX
  8
BG_SILKSCREEN_TOP
 10
6.687200
 20
17.256000
 40
0.000000
 41
0.000000
 42
0.000000
  0
VERTEX
  8
BG_SILKSCREEN_TOP
 10
6.670000
 20
17.343200
 40
0.000000
 41
0.000000
 42
0.000000
  0
VERTEX
  8
BG_SILKSCREEN_TOP
 10
6.637400
 20
17.425000
 40
0.000000
 41
0.000000
 42
0.000000
  0
VERTEX
  8
BG_SILKSCREEN_TOP
 10
6.587400
 20
17.497000
 40
0.000000
 41
0.000000
 42
0.000000
  0
VERTEX
  8
BG_SILKSCREEN_TOP
 10
6.526600
 20
17.559400
 40
0.000000
 41
0.000000
 42
0.000000
  0
VERTEX
  8
BG_SILKSCREEN_TOP
 10
6.458000
 20
17.613000
 40
0.000000
 41
0.000000
 42
0.000000
  0
VERTEX
  8
BG_SILKSCREEN_TOP
 10
6.385200
 20
17.659800
 40
0.000000
 41
0.000000
 42
0.000000
  0
VERTEX
  8
BG_SILKSCREEN_TOP
 10
6.311400
 20
17.705400
 40
0.000000
 41
0.000000
 42
0.000000
  0
VERTEX
  8
BG_SILKSCREEN_TOP
 10
6.236800
 20
17.749600
 40
0.000000
 41
0.000000
 42
0.000000
  0
VERTEX
  8
BG_SILKSCREEN_TOP
 10
6.161400
 20
17.792200
 40
0.000000
 41
0.000000
 42
0.000000
  0
VERTEX
  8
BG_SILKSCREEN_TOP
 10
6.085800
 20
17.834600
 40
0.000000
 41
0.000000
 42
0.000000
  0
VERTEX
  8
BG_SILKSCREEN_TOP
 10
6.010800
 20
17.878000
 40
0.000000
 41
0.000000
 42
0.000000
  0
VERTEX
  8
BG_SILKSCREEN_TOP
 10
5.936800
 20
17.923000
 40
0.000000
 41
0.000000
 42
0.000000
  0
VERTEX
  8
BG_SILKSCREEN_TOP
 10
5.868200
 20
17.975600
 40
0.000000
 41
0.000000
 42
0.000000
  0
VERTEX
  8
BG_SILKSCREEN_TOP
 10
5.812400
 20
18.040400
 40
0.000000
 41
0.000000
 42
0.000000
  0
VERTEX
  8
BG_SILKSCREEN_TOP
 10
5.786000
 20
18.120400
 40
0.000000
 41
0.000000
 42
0.000000
  0
VERTEX
  8
BG_SILKSCREEN_TOP
 10
5.795400
 20
18.203000
 40
0.000000
 41
0.000000
 42
0.000000
  0
VERTEX
  8
BG_SILKSCREEN_TOP
 10
5.838600
 20
18.272200
 40
0.000000
 41
0.000000
 42
0.000000
  0
VERTEX
  8
BG_SILKSCREEN_TOP
 10
5.908400
 20
18.311200
 40
0.000000
 41
0.000000
 42
0.000000
  0
VERTEX
  8
BG_SILKSCREEN_TOP
 10
5.987400
 20
18.320000
 40
0.000000
 41
0.000000
 42
0.000000
  0
VERTEX
  8
BG_SILKSCREEN_TOP
 10
6.062800
 20
18.298800
 40
0.000000
 41
0.000000
 42
0.000000
  0
VERTEX
  8
BG_SILKSCREEN_TOP
 10
6.118600
 20
18.246000
 40
0.000000
 41
0.000000
 42
0.000000
  0
VERTEX
  8
BG_SILKSCREEN_TOP
 10
6.147400
 20
18.175400
 40
0.000000
 41
0.000000
 42
0.000000
  0
VERTEX
  8
BG_SILKSCREEN_TOP
 10
6.158400
 20
18.100200
 40
0.000000
 41
0.000000
 42
0.000000
  0
VERTEX
  8
BG_SILKSCREEN_TOP
 10
6.165600
 20
18.024600
 40
0.000000
 41
0.000000
 42
0.000000
  0
VERTEX
  8
BG_SILKSCREEN_TOP
 10
6.175600
 20
18.024400
 40
0.000000
 41
0.000000
 42
0.000000
  0
VERTEX
  8
BG_SILKSCREEN_TOP
 10
6.195600
 20
18.023600
 40
0.000000
 41
0.000000
 42
0.000000
  0
VERTEX
  8
BG_SILKSCREEN_TOP
 10
6.205600
 20
18.023400
 40
0.000000
 41
0.000000
 42
0.000000
  0
VERTEX
  8
BG_SILKSCREEN_TOP
 10
6.225600
 20
18.022600
 40
0.000000
 41
0.000000
 42
0.000000
  0
VERTEX
  8
BG_SILKSCREEN_TOP
 10
6.235600
 20
18.022400
 40
0.000000
 41
0.000000
 42
0.000000
  0
VERTEX
  8
BG_SILKSCREEN_TOP
 10
6.245600
 20
18.022000
 40
0.000000
 41
0.000000
 42
0.000000
  0
VERTEX
  8
BG_SILKSCREEN_TOP
 10
6.255600
 20
18.021800
 40
0.000000
 41
0.000000
 42
0.000000
  0
VERTEX
  8
BG_SILKSCREEN_TOP
 10
6.265800
 20
18.021400
 40
0.000000
 41
0.000000
 42
0.000000
  0
VERTEX
  8
BG_SILKSCREEN_TOP
 10
6.275800
 20
18.021000
 40
0.000000
 41
0.000000
 42
0.000000
  0
VERTEX
  8
BG_SILKSCREEN_TOP
 10
6.285800
 20
18.020800
 40
0.000000
 41
0.000000
 42
0.000000
  0
VERTEX
  8
BG_SILKSCREEN_TOP
 10
6.305800
 20
18.020000
 40
0.000000
 41
0.000000
 42
0.000000
  0
VERTEX
  8
BG_SILKSCREEN_TOP
 10
6.315800
 20
18.019800
 40
0.000000
 41
0.000000
 42
0.000000
  0
VERTEX
  8
BG_SILKSCREEN_TOP
 10
6.335800
 20
18.019000
 40
0.000000
 41
0.000000
 42
0.000000
  0
VERTEX
  8
BG_SILKSCREEN_TOP
 10
6.345800
 20
18.018800
 40
0.000000
 41
0.000000
 42
0.000000
  0
VERTEX
  8
BG_SILKSCREEN_TOP
 10
6.365800
 20
18.018000
 40
0.000000
 41
0.000000
 42
0.000000
  0
VERTEX
  8
BG_SILKSCREEN_TOP
 10
6.376000
 20
18.017800
 40
0.000000
 41
0.000000
 42
0.000000
  0
VERTEX
  8
BG_SILKSCREEN_TOP
 10
6.386000
 20
18.017400
 40
0.000000
 41
0.000000
 42
0.000000
  0
VERTEX
  8
BG_SILKSCREEN_TOP
 10
6.396000
 20
18.017200
 40
0.000000
 41
0.000000
 42
0.000000
  0
VERTEX
  8
BG_SILKSCREEN_TOP
 10
6.416000
 20
18.016400
 40
0.000000
 41
0.000000
 42
0.000000
  0
VERTEX
  8
BG_SILKSCREEN_TOP
 10
6.426000
 20
18.016200
 40
0.000000
 41
0.000000
 42
0.000000
  0
VERTEX
  8
BG_SILKSCREEN_TOP
 10
6.446000
 20
18.015400
 40
0.000000
 41
0.000000
 42
0.000000
  0
VERTEX
  8
BG_SILKSCREEN_TOP
 10
6.456000
 20
18.015200
 40
0.000000
 41
0.000000
 42
0.000000
  0
VERTEX
  8
BG_SILKSCREEN_TOP
 10
6.476000
 20
18.014400
 40
0.000000
 41
0.000000
 42
0.000000
  0
VERTEX
  8
BG_SILKSCREEN_TOP
 10
6.486200
 20
18.014200
 40
0.000000
 41
0.000000
 42
0.000000
  0
VERTEX
  8
BG_SILKSCREEN_TOP
 10
6.506200
 20
18.013400
 40
0.000000
 41
0.000000
 42
0.000000
  0
VERTEX
  8
BG_SILKSCREEN_TOP
 10
6.516200
 20
18.013200
 40
0.000000
 41
0.000000
 42
0.000000
  0
VERTEX
  8
BG_SILKSCREEN_TOP
 10
6.526200
 20
18.012800
 40
0.000000
 41
0.000000
 42
0.000000
  0
VERTEX
  8
BG_SILKSCREEN_TOP
 10
6.536200
 20
18.012600
 40
0.000000
 41
0.000000
 42
0.000000
  0
VERTEX
  8
BG_SILKSCREEN_TOP
 10
6.556200
 20
18.011800
 40
0.000000
 41
0.000000
 42
0.000000
  0
VERTEX
  8
BG_SILKSCREEN_TOP
 10
6.566200
 20
18.011600
 40
0.000000
 41
0.000000
 42
0.000000
  0
VERTEX
  8
BG_SILKSCREEN_TOP
 10
6.576200
 20
18.011200
 40
0.000000
 41
0.000000
 42
0.000000
  0
VERTEX
  8
BG_SILKSCREEN_TOP
 10
6.586400
 20
18.010800
 40
0.000000
 41
0.000000
 42
0.000000
  0
VERTEX
  8
BG_SILKSCREEN_TOP
 10
6.596400
 20
18.010600
 40
0.000000
 41
0.000000
 42
0.000000
  0
VERTEX
  8
BG_SILKSCREEN_TOP
 10
6.616400
 20
18.009800
 40
0.000000
 41
0.000000
 42
0.000000
  0
VERTEX
  8
BG_SILKSCREEN_TOP
 10
6.626400
 20
18.009600
 40
0.000000
 41
0.000000
 42
0.000000
  0
VERTEX
  8
BG_SILKSCREEN_TOP
 10
6.636400
 20
18.009200
 40
0.000000
 41
0.000000
 42
0.000000
  0
VERTEX
  8
BG_SILKSCREEN_TOP
 10
6.646400
 20
18.009000
 40
0.000000
 41
0.000000
 42
0.000000
  0
VERTEX
  8
BG_SILKSCREEN_TOP
 10
6.666400
 20
18.008200
 40
0.000000
 41
0.000000
 42
0.000000
  0
VERTEX
  8
BG_SILKSCREEN_TOP
 10
6.664000
 20
18.035000
 40
0.000000
 41
0.000000
 42
0.000000
  0
VERTEX
  8
BG_SILKSCREEN_TOP
 10
6.659200
 20
18.088200
 40
0.000000
 41
0.000000
 42
0.000000
  0
VERTEX
  8
BG_SILKSCREEN_TOP
 10
6.656800
 20
18.115000
 40
0.000000
 41
0.000000
 42
0.000000
  0
VERTEX
  8
BG_SILKSCREEN_TOP
 10
6.654400
 20
18.141600
 40
0.000000
 41
0.000000
 42
0.000000
  0
VERTEX
  8
BG_SILKSCREEN_TOP
 10
6.652000
 20
18.168400
 40
0.000000
 41
0.000000
 42
0.000000
  0
VERTEX
  8
BG_SILKSCREEN_TOP
 10
6.649600
 20
18.195000
 40
0.000000
 41
0.000000
 42
0.000000
  0
VERTEX
  8
BG_SILKSCREEN_TOP
 10
6.646400
 20
18.221600
 40
0.000000
 41
0.000000
 42
0.000000
  0
VERTEX
  8
BG_SILKSCREEN_TOP
 10
6.642400
 20
18.248000
 40
0.000000
 41
0.000000
 42
0.000000
  0
VERTEX
  8
BG_SILKSCREEN_TOP
 10
6.637600
 20
18.274400
 40
0.000000
 41
0.000000
 42
0.000000
  0
VERTEX
  8
BG_SILKSCREEN_TOP
 10
6.632000
 20
18.300600
 40
0.000000
 41
0.000000
 42
0.000000
  0
VERTEX
  8
BG_SILKSCREEN_TOP
 10
6.625600
 20
18.326400
 40
0.000000
 41
0.000000
 42
0.000000
  0
VERTEX
  8
BG_SILKSCREEN_TOP
 10
6.617600
 20
18.351800
 40
0.000000
 41
0.000000
 42
0.000000
  0
VERTEX
  8
BG_SILKSCREEN_TOP
 10
6.607600
 20
18.376400
 40
0.000000
 41
0.000000
 42
0.000000
  0
VERTEX
  8
BG_SILKSCREEN_TOP
 10
6.595600
 20
18.400200
 40
0.000000
 41
0.000000
 42
0.000000
  0
VERTEX
  8
BG_SILKSCREEN_TOP
 10
6.582000
 20
18.423000
 40
0.000000
 41
0.000000
 42
0.000000
  0
VERTEX
  8
BG_SILKSCREEN_TOP
 10
6.566600
 20
18.444400
 40
0.000000
 41
0.000000
 42
0.000000
  0
VERTEX
  8
BG_SILKSCREEN_TOP
 10
6.549600
 20
18.464600
 40
0.000000
 41
0.000000
 42
0.000000
  0
VERTEX
  8
BG_SILKSCREEN_TOP
 10
6.531000
 20
18.483200
 40
0.000000
 41
0.000000
 42
0.000000
  0
VERTEX
  8
BG_SILKSCREEN_TOP
 10
6.510800
 20
18.500400
 40
0.000000
 41
0.000000
 42
0.000000
  0
VERTEX
  8
BG_SILKSCREEN_TOP
 10
6.490000
 20
18.516200
 40
0.000000
 41
0.000000
 42
0.000000
  0
VERTEX
  8
BG_SILKSCREEN_TOP
 10
6.468800
 20
18.531600
 40
0.000000
 41
0.000000
 42
0.000000
  0
VERTEX
  8
BG_SILKSCREEN_TOP
 10
6.447000
 20
18.546200
 40
0.000000
 41
0.000000
 42
0.000000
  0
VERTEX
  8
BG_SILKSCREEN_TOP
 10
6.424600
 20
18.560000
 40
0.000000
 41
0.000000
 42
0.000000
  0
VERTEX
  8
BG_SILKSCREEN_TOP
 10
6.402000
 20
18.573200
 40
0.000000
 41
0.000000
 42
0.000000
  0
VERTEX
  8
BG_SILKSCREEN_TOP
 10
6.378800
 20
18.585400
 40
0.000000
 41
0.000000
 42
0.000000
  0
VERTEX
  8
BG_SILKSCREEN_TOP
 10
6.355200
 20
18.596600
 40
0.000000
 41
0.000000
 42
0.000000
  0
VERTEX
  8
BG_SILKSCREEN_TOP
 10
6.331000
 20
18.606800
 40
0.000000
 41
0.000000
 42
0.000000
  0
VERTEX
  8
BG_SILKSCREEN_TOP
 10
6.306600
 20
18.615800
 40
0.000000
 41
0.000000
 42
0.000000
  0
VERTEX
  8
BG_SILKSCREEN_TOP
 10
6.281600
 20
18.623400
 40
0.000000
 41
0.000000
 42
0.000000
  0
VERTEX
  8
BG_SILKSCREEN_TOP
 10
6.256200
 20
18.629600
 40
0.000000
 41
0.000000
 42
0.000000
  0
VERTEX
  8
BG_SILKSCREEN_TOP
 10
6.230400
 20
18.634400
 40
0.000000
 41
0.000000
 42
0.000000
  0
VERTEX
  8
BG_SILKSCREEN_TOP
 10
6.204600
 20
18.638200
 40
0.000000
 41
0.000000
 42
0.000000
  0
VERTEX
  8
BG_SILKSCREEN_TOP
 10
6.178800
 20
18.641200
 40
0.000000
 41
0.000000
 42
0.000000
  0
VERTEX
  8
BG_SILKSCREEN_TOP
 10
6.152800
 20
18.643200
 40
0.000000
 41
0.000000
 42
0.000000
  0
VERTEX
  8
BG_SILKSCREEN_TOP
 10
6.126800
 20
18.644800
 40
0.000000
 41
0.000000
 42
0.000000
  0
VERTEX
  8
BG_SILKSCREEN_TOP
 10
6.074800
 20
18.647600
 40
0.000000
 41
0.000000
 42
0.000000
  0
VERTEX
  8
BG_SILKSCREEN_TOP
 10
6.048600
 20
18.648600
 40
0.000000
 41
0.000000
 42
0.000000
  0
VERTEX
  8
BG_SILKSCREEN_TOP
 10
5.996600
 20
18.649800
 40
0.000000
 41
0.000000
 42
0.000000
  0
VERTEX
  8
BG_SILKSCREEN_TOP
 10
5.970600
 20
18.650000
 40
0.000000
 41
0.000000
 42
0.000000
  0
VERTEX
  8
BG_SILKSCREEN_TOP
 10
5.944400
 20
18.650000
 40
0.000000
 41
0.000000
 42
0.000000
  0
VERTEX
  8
BG_SILKSCREEN_TOP
 10
5.918400
 20
18.649600
 40
0.000000
 41
0.000000
 42
0.000000
  0
VERTEX
  8
BG_SILKSCREEN_TOP
 10
5.892400
 20
18.649000
 40
0.000000
 41
0.000000
 42
0.000000
  0
VERTEX
  8
BG_SILKSCREEN_TOP
 10
5.866200
 20
18.648200
 40
0.000000
 41
0.000000
 42
0.000000
  0
VERTEX
  8
BG_SILKSCREEN_TOP
 10
5.840200
 20
18.647000
 40
0.000000
 41
0.000000
 42
0.000000
  0
VERTEX
  8
BG_SILKSCREEN_TOP
 10
5.814200
 20
18.645600
 40
0.000000
 41
0.000000
 42
0.000000
  0
VERTEX
  8
BG_SILKSCREEN_TOP
 10
5.788200
 20
18.643800
 40
0.000000
 41
0.000000
 42
0.000000
  0
VERTEX
  8
BG_SILKSCREEN_TOP
 10
5.762200
 20
18.641800
 40
0.000000
 41
0.000000
 42
0.000000
  0
VERTEX
  8
BG_SILKSCREEN_TOP
 10
5.696400
 20
18.628600
 40
0.000000
 41
0.000000
 42
0.000000
  0
SEQEND
  0
POLYLINE
  8
BG_SILKSCREEN_TOP
 66
1
 70
1
 40
0.000000
 41
0.000000
 39
0.000000
  0
VERTEX
  8
BG_SILKSCREEN_TOP
 10
8.267000
 20
18.588600
 40
0.000000
 41
0.000000
 42
0.000000
  0
VERTEX
  8
BG_SILKSCREEN_TOP
 10
8.249400
 20
18.589000
 40
0.000000
 41
0.000000
 42
0.000000
  0
VERTEX
  8
BG_SILKSCREEN_TOP
 10
8.232000
 20
18.589200
 40
0.000000
 41
0.000000
 42
0.000000
  0
VERTEX
  8
BG_SILKSCREEN_TOP
 10
8.214400
 20
18.589600
 40
0.000000
 41
0.000000
 42
0.000000
  0
VERTEX
  8
BG_SILKSCREEN_TOP
 10
8.196800
 20
18.589800
 40
0.000000
 41
0.000000
 42
0.000000
  0
VERTEX
  8
BG_SILKSCREEN_TOP
 10
8.179200
 20
18.590200
 40
0.000000
 41
0.000000
 42
0.000000
  0
VERTEX
  8
BG_SILKSCREEN_TOP
 10
8.161800
 20
18.590600
 40
0.000000
 41
0.000000
 42
0.000000
  0
VERTEX
  8
BG_SILKSCREEN_TOP
 10
8.144200
 20
18.590800
 40
0.000000
 41
0.000000
 42
0.000000
  0
VERTEX
  8
BG_SILKSCREEN_TOP
 10
8.126600
 20
18.591200
 40
0.000000
 41
0.000000
 42
0.000000
  0
VERTEX
  8
BG_SILKSCREEN_TOP
 10
8.109200
 20
18.591400
 40
0.000000
 41
0.000000
 42
0.000000
  0
VERTEX
  8
BG_SILKSCREEN_TOP
 10
8.091600
 20
18.591800
 40
0.000000
 41
0.000000
 42
0.000000
  0
VERTEX
  8
BG_SILKSCREEN_TOP
 10
8.074000
 20
18.592000
 40
0.000000
 41
0.000000
 42
0.000000
  0
VERTEX
  8
BG_SILKSCREEN_TOP
 10
8.056400
 20
18.592400
 40
0.000000
 41
0.000000
 42
0.000000
  0
VERTEX
  8
BG_SILKSCREEN_TOP
 10
8.039000
 20
18.592600
 40
0.000000
 41
0.000000
 42
0.000000
  0
VERTEX
  8
BG_SILKSCREEN_TOP
 10
8.021400
 20
18.593000
 40
0.000000
 41
0.000000
 42
0.000000
  0
VERTEX
  8
BG_SILKSCREEN_TOP
 10
8.003800
 20
18.593200
 40
0.000000
 41
0.000000
 42
0.000000
  0
VERTEX
  8
BG_SILKSCREEN_TOP
 10
7.986200
 20
18.593600
 40
0.000000
 41
0.000000
 42
0.000000
  0
VERTEX
  8
BG_SILKSCREEN_TOP
 10
7.968800
 20
18.594000
 40
0.000000
 41
0.000000
 42
0.000000
  0
VERTEX
  8
BG_SILKSCREEN_TOP
 10
7.951200
 20
18.594200
 40
0.000000
 41
0.000000
 42
0.000000
  0
VERTEX
  8
BG_SILKSCREEN_TOP
 10
7.933600
 20
18.594600
 40
0.000000
 41
0.000000
 42
0.000000
  0
VERTEX
  8
BG_SILKSCREEN_TOP
 10
7.916000
 20
18.594800
 40
0.000000
 41
0.000000
 42
0.000000
  0
VERTEX
  8
BG_SILKSCREEN_TOP
 10
7.898600
 20
18.595200
 40
0.000000
 41
0.000000
 42
0.000000
  0
VERTEX
  8
BG_SILKSCREEN_TOP
 10
7.881000
 20
18.595400
 40
0.000000
 41
0.000000
 42
0.000000
  0
VERTEX
  8
BG_SILKSCREEN_TOP
 10
7.863400
 20
18.595800
 40
0.000000
 41
0.000000
 42
0.000000
  0
VERTEX
  8
BG_SILKSCREEN_TOP
 10
7.846000
 20
18.596000
 40
0.000000
 41
0.000000
 42
0.000000
  0
VERTEX
  8
BG_SILKSCREEN_TOP
 10
7.828400
 20
18.596400
 40
0.000000
 41
0.000000
 42
0.000000
  0
VERTEX
  8
BG_SILKSCREEN_TOP
 10
7.810800
 20
18.596600
 40
0.000000
 41
0.000000
 42
0.000000
  0
VERTEX
  8
BG_SILKSCREEN_TOP
 10
7.793200
 20
18.597000
 40
0.000000
 41
0.000000
 42
0.000000
  0
VERTEX
  8
BG_SILKSCREEN_TOP
 10
7.775800
 20
18.597200
 40
0.000000
 41
0.000000
 42
0.000000
  0
VERTEX
  8
BG_SILKSCREEN_TOP
 10
7.758200
 20
18.597400
 40
0.000000
 41
0.000000
 42
0.000000
  0
VERTEX
  8
BG_SILKSCREEN_TOP
 10
7.740600
 20
18.597800
 40
0.000000
 41
0.000000
 42
0.000000
  0
VERTEX
  8
BG_SILKSCREEN_TOP
 10
7.723000
 20
18.598000
 40
0.000000
 41
0.000000
 42
0.000000
  0
VERTEX
  8
BG_SILKSCREEN_TOP
 10
7.705600
 20
18.598200
 40
0.000000
 41
0.000000
 42
0.000000
  0
VERTEX
  8
BG_SILKSCREEN_TOP
 10
7.652800
 20
18.598800
 40
0.000000
 41
0.000000
 42
0.000000
  0
VERTEX
  8
BG_SILKSCREEN_TOP
 10
7.635400
 20
18.599000
 40
0.000000
 41
0.000000
 42
0.000000
  0
VERTEX
  8
BG_SILKSCREEN_TOP
 10
7.600200
 20
18.599400
 40
0.000000
 41
0.000000
 42
0.000000
  0
VERTEX
  8
BG_SILKSCREEN_TOP
 10
7.582800
 20
18.599600
 40
0.000000
 41
0.000000
 42
0.000000
  0
VERTEX
  8
BG_SILKSCREEN_TOP
 10
7.565200
 20
18.599800
 40
0.000000
 41
0.000000
 42
0.000000
  0
VERTEX
  8
BG_SILKSCREEN_TOP
 10
7.547600
 20
18.599600
 40
0.000000
 41
0.000000
 42
0.000000
  0
VERTEX
  8
BG_SILKSCREEN_TOP
 10
7.530000
 20
18.599000
 40
0.000000
 41
0.000000
 42
0.000000
  0
VERTEX
  8
BG_SILKSCREEN_TOP
 10
7.512600
 20
18.598000
 40
0.000000
 41
0.000000
 42
0.000000
  0
VERTEX
  8
BG_SILKSCREEN_TOP
 10
7.495000
 20
18.596600
 40
0.000000
 41
0.000000
 42
0.000000
  0
VERTEX
  8
BG_SILKSCREEN_TOP
 10
7.477600
 20
18.594800
 40
0.000000
 41
0.000000
 42
0.000000
  0
VERTEX
  8
BG_SILKSCREEN_TOP
 10
7.460600
 20
18.591600
 40
0.000000
 41
0.000000
 42
0.000000
  0
VERTEX
  8
BG_SILKSCREEN_TOP
 10
7.444200
 20
18.585200
 40
0.000000
 41
0.000000
 42
0.000000
  0
VERTEX
  8
BG_SILKSCREEN_TOP
 10
7.429400
 20
18.576200
 40
0.000000
 41
0.000000
 42
0.000000
  0
VERTEX
  8
BG_SILKSCREEN_TOP
 10
7.403800
 20
18.531800
 40
0.000000
 41
0.000000
 42
0.000000
  0
VERTEX
  8
BG_SILKSCREEN_TOP
 10
7.392400
 20
18.481200
 40
0.000000
 41
0.000000
 42
0.000000
  0
VERTEX
  8
BG_SILKSCREEN_TOP
 10
7.382000
 20
18.430600
 40
0.000000
 41
0.000000
 42
0.000000
  0
VERTEX
  8
BG_SILKSCREEN_TOP
 10
7.372200
 20
18.379800
 40
0.000000
 41
0.000000
 42
0.000000
  0
VERTEX
  8
BG_SILKSCREEN_TOP
 10
7.362800
 20
18.328800
 40
0.000000
 41
0.000000
 42
0.000000
  0
VERTEX
  8
BG_SILKSCREEN_TOP
 10
7.344000
 20
18.227200
 40
0.000000
 41
0.000000
 42
0.000000
  0
VERTEX
  8
BG_SILKSCREEN_TOP
 10
7.334600
 20
18.176200
 40
0.000000
 41
0.000000
 42
0.000000
  0
VERTEX
  8
BG_SILKSCREEN_TOP
 10
7.325200
 20
18.125400
 40
0.000000
 41
0.000000
 42
0.000000
  0
VERTEX
  8
BG_SILKSCREEN_TOP
 10
7.315800
 20
18.074400
 40
0.000000
 41
0.000000
 42
0.000000
  0
VERTEX
  8
BG_SILKSCREEN_TOP
 10
7.306200
 20
18.023600
 40
0.000000
 41
0.000000
 42
0.000000
  0
VERTEX
  8
BG_SILKSCREEN_TOP
 10
7.296800
 20
17.972800
 40
0.000000
 41
0.000000
 42
0.000000
  0
VERTEX
  8
BG_SILKSCREEN_TOP
 10
7.287400
 20
17.921800
 40
0.000000
 41
0.000000
 42
0.000000
  0
VERTEX
  8
BG_SILKSCREEN_TOP
 10
7.268600
 20
17.820200
 40
0.000000
 41
0.000000
 42
0.000000
  0
VERTEX
  8
BG_SILKSCREEN_TOP
 10
7.259200
 20
17.769200
 40
0.000000
 41
0.000000
 42
0.000000
  0
VERTEX
  8
BG_SILKSCREEN_TOP
 10
7.249600
 20
17.718400
 40
0.000000
 41
0.000000
 42
0.000000
  0
VERTEX
  8
BG_SILKSCREEN_TOP
 10
7.240200
 20
17.667400
 40
0.000000
 41
0.000000
 42
0.000000
  0
VERTEX
  8
BG_SILKSCREEN_TOP
 10
7.221400
 20
17.565800
 40
0.000000
 41
0.000000
 42
0.000000
  0
VERTEX
  8
BG_SILKSCREEN_TOP
 10
7.212000
 20
17.514800
 40
0.000000
 41
0.000000
 42
0.000000
  0
VERTEX
  8
BG_SILKSCREEN_TOP
 10
7.202600
 20
17.464000
 40
0.000000
 41
0.000000
 42
0.000000
  0
VERTEX
  8
BG_SILKSCREEN_TOP
 10
7.193200
 20
17.413000
 40
0.000000
 41
0.000000
 42
0.000000
  0
VERTEX
  8
BG_SILKSCREEN_TOP
 10
7.174400
 20
17.311400
 40
0.000000
 41
0.000000
 42
0.000000
  0
VERTEX
  8
BG_SILKSCREEN_TOP
 10
7.165000
 20
17.260400
 40
0.000000
 41
0.000000
 42
0.000000
  0
VERTEX
  8
BG_SILKSCREEN_TOP
 10
7.155800
 20
17.209600
 40
0.000000
 41
0.000000
 42
0.000000
  0
VERTEX
  8
BG_SILKSCREEN_TOP
 10
7.146400
 20
17.158600
 40
0.000000
 41
0.000000
 42
0.000000
  0
VERTEX
  8
BG_SILKSCREEN_TOP
 10
7.127600
 20
17.057000
 40
0.000000
 41
0.000000
 42
0.000000
  0
VERTEX
  8
BG_SILKSCREEN_TOP
 10
7.118200
 20
17.006000
 40
0.000000
 41
0.000000
 42
0.000000
  0
VERTEX
  8
BG_SILKSCREEN_TOP
 10
7.108800
 20
16.955200
 40
0.000000
 41
0.000000
 42
0.000000
  0
VERTEX
  8
BG_SILKSCREEN_TOP
 10
7.099400
 20
16.904200
 40
0.000000
 41
0.000000
 42
0.000000
  0
VERTEX
  8
BG_SILKSCREEN_TOP
 10
7.080600
 20
16.802600
 40
0.000000
 41
0.000000
 42
0.000000
  0
VERTEX
  8
BG_SILKSCREEN_TOP
 10
7.071200
 20
16.751600
 40
0.000000
 41
0.000000
 42
0.000000
  0
VERTEX
  8
BG_SILKSCREEN_TOP
 10
7.061800
 20
16.700800
 40
0.000000
 41
0.000000
 42
0.000000
  0
VERTEX
  8
BG_SILKSCREEN_TOP
 10
7.053600
 20
16.649600
 40
0.000000
 41
0.000000
 42
0.000000
  0
VERTEX
  8
BG_SILKSCREEN_TOP
 10
7.076000
 20
16.616400
 40
0.000000
 41
0.000000
 42
0.000000
  0
VERTEX
  8
BG_SILKSCREEN_TOP
 10
7.121000
 20
16.610400
 40
0.000000
 41
0.000000
 42
0.000000
  0
VERTEX
  8
BG_SILKSCREEN_TOP
 10
7.166400
 20
16.606200
 40
0.000000
 41
0.000000
 42
0.000000
  0
VERTEX
  8
BG_SILKSCREEN_TOP
 10
7.212000
 20
16.603800
 40
0.000000
 41
0.000000
 42
0.000000
  0
VERTEX
  8
BG_SILKSCREEN_TOP
 10
7.257600
 20
16.602600
 40
0.000000
 41
0.000000
 42
0.000000
  0
VERTEX
  8
BG_SILKSCREEN_TOP
 10
7.303000
 20
16.602200
 40
0.000000
 41
0.000000
 42
0.000000
  0
VERTEX
  8
BG_SILKSCREEN_TOP
 10
7.576400
 20
16.602200
 40
0.000000
 41
0.000000
 42
0.000000
  0
VERTEX
  8
BG_SILKSCREEN_TOP
 10
7.587000
 20
16.672600
 40
0.000000
 41
0.000000
 42
0.000000
  0
VERTEX
  8
BG_SILKSCREEN_TOP
 10
7.597600
 20
16.743200
 40
0.000000
 41
0.000000
 42
0.000000
  0
VERTEX
  8
BG_SILKSCREEN_TOP
 10
7.608000
 20
16.813800
 40
0.000000
 41
0.000000
 42
0.000000
  0
VERTEX
  8
BG_SILKSCREEN_TOP
 10
7.618600
 20
16.884200
 40
0.000000
 41
0.000000
 42
0.000000
  0
VERTEX
  8
BG_SILKSCREEN_TOP
 10
7.639800
 20
17.025400
 40
0.000000
 41
0.000000
 42
0.000000
  0
VERTEX
  8
BG_SILKSCREEN_TOP
 10
7.650200
 20
17.096000
 40
0.000000
 41
0.000000
 42
0.000000
  0
VERTEX
  8
BG_SILKSCREEN_TOP
 10
7.660800
 20
17.166400
 40
0.000000
 41
0.000000
 42
0.000000
  0
VERTEX
  8
BG_SILKSCREEN_TOP
 10
7.682000
 20
17.307600
 40
0.000000
 41
0.000000
 42
0.000000
  0
VERTEX
  8
BG_SILKSCREEN_TOP
 10
7.692600
 20
17.378000
 40
0.000000
 41
0.000000
 42
0.000000
  0
VERTEX
  8
BG_SILKSCREEN_TOP
 10
7.713800
 20
17.519200
 40
0.000000
 41
0.000000
 42
0.000000
  0
VERTEX
  8
BG_SILKSCREEN_TOP
 10
7.724400
 20
17.589600
 40
0.000000
 41
0.000000
 42
0.000000
  0
VERTEX
  8
BG_SILKSCREEN_TOP
 10
7.735000
 20
17.660200
 40
0.000000
 41
0.000000
 42
0.000000
  0
VERTEX
  8
BG_SILKSCREEN_TOP
 10
7.745800
 20
17.730600
 40
0.000000
 41
0.000000
 42
0.000000
  0
VERTEX
  8
BG_SILKSCREEN_TOP
 10
7.756600
 20
17.801200
 40
0.000000
 41
0.000000
 42
0.000000
  0
VERTEX
  8
BG_SILKSCREEN_TOP
 10
7.767200
 20
17.871800
 40
0.000000
 41
0.000000
 42
0.000000
  0
VERTEX
  8
BG_SILKSCREEN_TOP
 10
7.778200
 20
17.942200
 40
0.000000
 41
0.000000
 42
0.000000
  0
VERTEX
  8
BG_SILKSCREEN_TOP
 10
7.789000
 20
18.012600
 40
0.000000
 41
0.000000
 42
0.000000
  0
VERTEX
  8
BG_SILKSCREEN_TOP
 10
7.800600
 20
18.083000
 40
0.000000
 41
0.000000
 42
0.000000
  0
VERTEX
  8
BG_SILKSCREEN_TOP
 10
7.812800
 20
18.153400
 40
0.000000
 41
0.000000
 42
0.000000
  0
VERTEX
  8
BG_SILKSCREEN_TOP
 10
7.825800
 20
18.223400
 40
0.000000
 41
0.000000
 42
0.000000
  0
VERTEX
  8
BG_SILKSCREEN_TOP
 10
7.841000
 20
18.293200
 40
0.000000
 41
0.000000
 42
0.000000
  0
VERTEX
  8
BG_SILKSCREEN_TOP
 10
7.867800
 20
18.356000
 40
0.000000
 41
0.000000
 42
0.000000
  0
VERTEX
  8
BG_SILKSCREEN_TOP
 10
7.892000
 20
18.291400
 40
0.000000
 41
0.000000
 42
0.000000
  0
VERTEX
  8
BG_SILKSCREEN_TOP
 10
7.902400
 20
18.221200
 40
0.000000
 41
0.000000
 42
0.000000
  0
VERTEX
  8
BG_SILKSCREEN_TOP
 10
7.912800
 20
18.150800
 40
0.000000
 41
0.000000
 42
0.000000
  0
VERTEX
  8
BG_SILKSCREEN_TOP
 10
7.923000
 20
18.080400
 40
0.000000
 41
0.000000
 42
0.000000
  0
VERTEX
  8
BG_SILKSCREEN_TOP
 10
7.933400
 20
18.010200
 40
0.000000
 41
0.000000
 42
0.000000
  0
VERTEX
  8
BG_SILKSCREEN_TOP
 10
7.943800
 20
17.939800
 40
0.000000
 41
0.000000
 42
0.000000
  0
VERTEX
  8
BG_SILKSCREEN_TOP
 10
7.954200
 20
17.869600
 40
0.000000
 41
0.000000
 42
0.000000
  0
VERTEX
  8
BG_SILKSCREEN_TOP
 10
7.964600
 20
17.799200
 40
0.000000
 41
0.000000
 42
0.000000
  0
VERTEX
  8
BG_SILKSCREEN_TOP
 10
7.985000
 20
17.658400
 40
0.000000
 41
0.000000
 42
0.000000
  0
VERTEX
  8
BG_SILKSCREEN_TOP
 10
7.995200
 20
17.588200
 40
0.000000
 41
0.000000
 42
0.000000
  0
VERTEX
  8
BG_SILKSCREEN_TOP
 10
8.015600
 20
17.447400
 40
0.000000
 41
0.000000
 42
0.000000
  0
VERTEX
  8
BG_SILKSCREEN_TOP
 10
8.035600
 20
17.306600
 40
0.000000
 41
0.000000
 42
0.000000
  0
VERTEX
  8
BG_SILKSCREEN_TOP
 10
8.065000
 20
17.095400
 40
0.000000
 41
0.000000
 42
0.000000
  0
VERTEX
  8
BG_SILKSCREEN_TOP
 10
8.074600
 20
17.025000
 40
0.000000
 41
0.000000
 42
0.000000
  0
VERTEX
  8
BG_SILKSCREEN_TOP
 10
8.084000
 20
16.954600
 40
0.000000
 41
0.000000
 42
0.000000
  0
VERTEX
  8
BG_SILKSCREEN_TOP
 10
8.093400
 20
16.884000
 40
0.000000
 41
0.000000
 42
0.000000
  0
VERTEX
  8
BG_SILKSCREEN_TOP
 10
8.102800
 20
16.813600
 40
0.000000
 41
0.000000
 42
0.000000
  0
VERTEX
  8
BG_SILKSCREEN_TOP
 10
8.112000
 20
16.743200
 40
0.000000
 41
0.000000
 42
0.000000
  0
VERTEX
  8
BG_SILKSCREEN_TOP
 10
8.121200
 20
16.672600
 40
0.000000
 41
0.000000
 42
0.000000
  0
VERTEX
  8
BG_SILKSCREEN_TOP
 10
8.130600
 20
16.602200
 40
0.000000
 41
0.000000
 42
0.000000
  0
VERTEX
  8
BG_SILKSCREEN_TOP
 10
8.406200
 20
16.602200
 40
0.000000
 41
0.000000
 42
0.000000
  0
VERTEX
  8
BG_SILKSCREEN_TOP
 10
8.461400
 20
16.602600
 40
0.000000
 41
0.000000
 42
0.000000
  0
VERTEX
  8
BG_SILKSCREEN_TOP
 10
8.516600
 20
16.603600
 40
0.000000
 41
0.000000
 42
0.000000
  0
VERTEX
  8
BG_SILKSCREEN_TOP
 10
8.571600
 20
16.607000
 40
0.000000
 41
0.000000
 42
0.000000
  0
VERTEX
  8
BG_SILKSCREEN_TOP
 10
8.626000
 20
16.615200
 40
0.000000
 41
0.000000
 42
0.000000
  0
VERTEX
  8
BG_SILKSCREEN_TOP
 10
8.656400
 20
16.648200
 40
0.000000
 41
0.000000
 42
0.000000
  0
VERTEX
  8
BG_SILKSCREEN_TOP
 10
8.648400
 20
16.696800
 40
0.000000
 41
0.000000
 42
0.000000
  0
VERTEX
  8
BG_SILKSCREEN_TOP
 10
8.639800
 20
16.745400
 40
0.000000
 41
0.000000
 42
0.000000
  0
VERTEX
  8
BG_SILKSCREEN_TOP
 10
8.631200
 20
16.793800
 40
0.000000
 41
0.000000
 42
0.000000
  0
VERTEX
  8
BG_SILKSCREEN_TOP
 10
8.622400
 20
16.842400
 40
0.000000
 41
0.000000
 42
0.000000
  0
VERTEX
  8
BG_SILKSCREEN_TOP
 10
8.613800
 20
16.891000
 40
0.000000
 41
0.000000
 42
0.000000
  0
VERTEX
  8
BG_SILKSCREEN_TOP
 10
8.605000
 20
16.939400
 40
0.000000
 41
0.000000
 42
0.000000
  0
VERTEX
  8
BG_SILKSCREEN_TOP
 10
8.596400
 20
16.988000
 40
0.000000
 41
0.000000
 42
0.000000
  0
VERTEX
  8
BG_SILKSCREEN_TOP
 10
8.587600
 20
17.036400
 40
0.000000
 41
0.000000
 42
0.000000
  0
VERTEX
  8
BG_SILKSCREEN_TOP
 10
8.578800
 20
17.085000
 40
0.000000
 41
0.000000
 42
0.000000
  0
VERTEX
  8
BG_SILKSCREEN_TOP
 10
8.570000
 20
17.133400
 40
0.000000
 41
0.000000
 42
0.000000
  0
VERTEX
  8
BG_SILKSCREEN_TOP
 10
8.552400
 20
17.230600
 40
0.000000
 41
0.000000
 42
0.000000
  0
VERTEX
  8
BG_SILKSCREEN_TOP
 10
8.543600
 20
17.279000
 40
0.000000
 41
0.000000
 42
0.000000
  0
VERTEX
  8
BG_SILKSCREEN_TOP
 10
8.534600
 20
17.327400
 40
0.000000
 41
0.000000
 42
0.000000
  0
VERTEX
  8
BG_SILKSCREEN_TOP
 10
8.525800
 20
17.376000
 40
0.000000
 41
0.000000
 42
0.000000
  0
VERTEX
  8
BG_SILKSCREEN_TOP
 10
8.516800
 20
17.424400
 40
0.000000
 41
0.000000
 42
0.000000
  0
VERTEX
  8
BG_SILKSCREEN_TOP
 10
8.508000
 20
17.473000
 40
0.000000
 41
0.000000
 42
0.000000
  0
VERTEX
  8
BG_SILKSCREEN_TOP
 10
8.499000
 20
17.521400
 40
0.000000
 41
0.000000
 42
0.000000
  0
VERTEX
  8
BG_SILKSCREEN_TOP
 10
8.490200
 20
17.570000
 40
0.000000
 41
0.000000
 42
0.000000
  0
VERTEX
  8
BG_SILKSCREEN_TOP
 10
8.481200
 20
17.618400
 40
0.000000
 41
0.000000
 42
0.000000
  0
VERTEX
  8
BG_SILKSCREEN_TOP
 10
8.472200
 20
17.667000
 40
0.000000
 41
0.000000
 42
0.000000
  0
VERTEX
  8
BG_SILKSCREEN_TOP
 10
8.463200
 20
17.715400
 40
0.000000
 41
0.000000
 42
0.000000
  0
VERTEX
  8
BG_SILKSCREEN_TOP
 10
8.454400
 20
17.763800
 40
0.000000
 41
0.000000
 42
0.000000
  0
VERTEX
  8
BG_SILKSCREEN_TOP
 10
8.445400
 20
17.812400
 40
0.000000
 41
0.000000
 42
0.000000
  0
VERTEX
  8
BG_SILKSCREEN_TOP
 10
8.436400
 20
17.860800
 40
0.000000
 41
0.000000
 42
0.000000
  0
VERTEX
  8
BG_SILKSCREEN_TOP
 10
8.427400
 20
17.909400
 40
0.000000
 41
0.000000
 42
0.000000
  0
VERTEX
  8
BG_SILKSCREEN_TOP
 10
8.418600
 20
17.957800
 40
0.000000
 41
0.000000
 42
0.000000
  0
VERTEX
  8
BG_SILKSCREEN_TOP
 10
8.409600
 20
18.006200
 40
0.000000
 41
0.000000
 42
0.000000
  0
VERTEX
  8
BG_SILKSCREEN_TOP
 10
8.400600
 20
18.054800
 40
0.000000
 41
0.000000
 42
0.000000
  0
VERTEX
  8
BG_SILKSCREEN_TOP
 10
8.391600
 20
18.103200
 40
0.000000
 41
0.000000
 42
0.000000
  0
VERTEX
  8
BG_SILKSCREEN_TOP
 10
8.382800
 20
18.151800
 40
0.000000
 41
0.000000
 42
0.000000
  0
VERTEX
  8
BG_SILKSCREEN_TOP
 10
8.364800
 20
18.248600
 40
0.000000
 41
0.000000
 42
0.000000
  0
VERTEX
  8
BG_SILKSCREEN_TOP
 10
8.355800
 20
18.297200
 40
0.000000
 41
0.000000
 42
0.000000
  0
VERTEX
  8
BG_SILKSCREEN_TOP
 10
8.346800
 20
18.345600
 40
0.000000
 41
0.000000
 42
0.000000
  0
VERTEX
  8
BG_SILKSCREEN_TOP
 10
8.338000
 20
18.394200
 40
0.000000
 41
0.000000
 42
0.000000
  0
VERTEX
  8
BG_SILKSCREEN_TOP
 10
8.320000
 20
18.491000
 40
0.000000
 41
0.000000
 42
0.000000
  0
VERTEX
  8
BG_SILKSCREEN_TOP
 10
8.311000
 20
18.539600
 40
0.000000
 41
0.000000
 42
0.000000
  0
VERTEX
  8
BG_SILKSCREEN_TOP
 10
8.302200
 20
18.588000
 40
0.000000
 41
0.000000
 42
0.000000
  0
VERTEX
  8
BG_SILKSCREEN_TOP
 10
8.284600
 20
18.588400
 40
0.000000
 41
0.000000
 42
0.000000
  0
SEQEND
  0
POLYLINE
  8
BG_SILKSCREEN_TOP
 66
1
 70
1
 40
0.000000
 41
0.000000
 39
0.000000
  0
VERTEX
  8
BG_SILKSCREEN_TOP
 10
18.427000
 20
18.638200
 40
0.000000
 41
0.000000
 42
0.000000
  0
VERTEX
  8
BG_SILKSCREEN_TOP
 10
18.334400
 20
18.618200
 40
0.000000
 41
0.000000
 42
0.000000
  0
VERTEX
  8
BG_SILKSCREEN_TOP
 10
18.244600
 20
18.587800
 40
0.000000
 41
0.000000
 42
0.000000
  0
VERTEX
  8
BG_SILKSCREEN_TOP
 10
18.160000
 20
18.546200
 40
0.000000
 41
0.000000
 42
0.000000
  0
VERTEX
  8
BG_SILKSCREEN_TOP
 10
18.083800
 20
18.491400
 40
0.000000
 41
0.000000
 42
0.000000
  0
VERTEX
  8
BG_SILKSCREEN_TOP
 10
18.019200
 20
18.423400
 40
0.000000
 41
0.000000
 42
0.000000
  0
VERTEX
  8
BG_SILKSCREEN_TOP
 10
17.970000
 20
18.344400
 40
0.000000
 41
0.000000
 42
0.000000
  0
VERTEX
  8
BG_SILKSCREEN_TOP
 10
17.943400
 20
18.256200
 40
0.000000
 41
0.000000
 42
0.000000
  0
VERTEX
  8
BG_SILKSCREEN_TOP
 10
17.938200
 20
18.164200
 40
0.000000
 41
0.000000
 42
0.000000
  0
VERTEX
  8
BG_SILKSCREEN_TOP
 10
17.934000
 20
18.072200
 40
0.000000
 41
0.000000
 42
0.000000
  0
VERTEX
  8
BG_SILKSCREEN_TOP
 10
17.930800
 20
17.980000
 40
0.000000
 41
0.000000
 42
0.000000
  0
VERTEX
  8
BG_SILKSCREEN_TOP
 10
17.928600
 20
17.888000
 40
0.000000
 41
0.000000
 42
0.000000
  0
VERTEX
  8
BG_SILKSCREEN_TOP
 10
17.927200
 20
17.795800
 40
0.000000
 41
0.000000
 42
0.000000
  0
VERTEX
  8
BG_SILKSCREEN_TOP
 10
17.926400
 20
17.703800
 40
0.000000
 41
0.000000
 42
0.000000
  0
VERTEX
  8
BG_SILKSCREEN_TOP
 10
17.926000
 20
17.611600
 40
0.000000
 41
0.000000
 42
0.000000
  0
VERTEX
  8
BG_SILKSCREEN_TOP
 10
17.926000
 20
17.427400
 40
0.000000
 41
0.000000
 42
0.000000
  0
VERTEX
  8
BG_SILKSCREEN_TOP
 10
17.926400
 20
17.335200
 40
0.000000
 41
0.000000
 42
0.000000
  0
VERTEX
  8
BG_SILKSCREEN_TOP
 10
17.926800
 20
17.243200
 40
0.000000
 41
0.000000
 42
0.000000
  0
VERTEX
  8
BG_SILKSCREEN_TOP
 10
17.927200
 20
17.151000
 40
0.000000
 41
0.000000
 42
0.000000
  0
VERTEX
  8
BG_SILKSCREEN_TOP
 10
17.930400
 20
17.059000
 40
0.000000
 41
0.000000
 42
0.000000
  0
VERTEX
  8
BG_SILKSCREEN_TOP
 10
17.938200
 20
16.967400
 40
0.000000
 41
0.000000
 42
0.000000
  0
VERTEX
  8
BG_SILKSCREEN_TOP
 10
17.961600
 20
16.878800
 40
0.000000
 41
0.000000
 42
0.000000
  0
VERTEX
  8
BG_SILKSCREEN_TOP
 10
18.007600
 20
16.800400
 40
0.000000
 41
0.000000
 42
0.000000
  0
VERTEX
  8
BG_SILKSCREEN_TOP
 10
18.068200
 20
16.732800
 40
0.000000
 41
0.000000
 42
0.000000
  0
VERTEX
  8
BG_SILKSCREEN_TOP
 10
18.138600
 20
16.676000
 40
0.000000
 41
0.000000
 42
0.000000
  0
VERTEX
  8
BG_SILKSCREEN_TOP
 10
18.217000
 20
16.631400
 40
0.000000
 41
0.000000
 42
0.000000
  0
VERTEX
  8
BG_SILKSCREEN_TOP
 10
18.300800
 20
16.598400
 40
0.000000
 41
0.000000
 42
0.000000
  0
VERTEX
  8
BG_SILKSCREEN_TOP
 10
18.387600
 20
16.574800
 40
0.000000
 41
0.000000
 42
0.000000
  0
VERTEX
  8
BG_SILKSCREEN_TOP
 10
18.476000
 20
16.559200
 40
0.000000
 41
0.000000
 42
0.000000
  0
VERTEX
  8
BG_SILKSCREEN_TOP
 10
18.565400
 20
16.551400
 40
0.000000
 41
0.000000
 42
0.000000
  0
VERTEX
  8
BG_SILKSCREEN_TOP
 10
18.655000
 20
16.551400
 40
0.000000
 41
0.000000
 42
0.000000
  0
VERTEX
  8
BG_SILKSCREEN_TOP
 10
18.743800
 20
16.559000
 40
0.000000
 41
0.000000
 42
0.000000
  0
VERTEX
  8
BG_SILKSCREEN_TOP
 10
18.831800
 20
16.574200
 40
0.000000
 41
0.000000
 42
0.000000
  0
VERTEX
  8
BG_SILKSCREEN_TOP
 10
18.918000
 20
16.597000
 40
0.000000
 41
0.000000
 42
0.000000
  0
VERTEX
  8
BG_SILKSCREEN_TOP
 10
19.001000
 20
16.627600
 40
0.000000
 41
0.000000
 42
0.000000
  0
VERTEX
  8
BG_SILKSCREEN_TOP
 10
19.080600
 20
16.667000
 40
0.000000
 41
0.000000
 42
0.000000
  0
VERTEX
  8
BG_SILKSCREEN_TOP
 10
19.154600
 20
16.714400
 40
0.000000
 41
0.000000
 42
0.000000
  0
VERTEX
  8
BG_SILKSCREEN_TOP
 10
19.217400
 20
16.775400
 40
0.000000
 41
0.000000
 42
0.000000
  0
VERTEX
  8
BG_SILKSCREEN_TOP
 10
19.264800
 20
16.848400
 40
0.000000
 41
0.000000
 42
0.000000
  0
VERTEX
  8
BG_SILKSCREEN_TOP
 10
19.295600
 20
16.928800
 40
0.000000
 41
0.000000
 42
0.000000
  0
VERTEX
  8
BG_SILKSCREEN_TOP
 10
19.312400
 20
17.013200
 40
0.000000
 41
0.000000
 42
0.000000
  0
VERTEX
  8
BG_SILKSCREEN_TOP
 10
19.320800
 20
17.099000
 40
0.000000
 41
0.000000
 42
0.000000
  0
VERTEX
  8
BG_SILKSCREEN_TOP
 10
19.324800
 20
17.184800
 40
0.000000
 41
0.000000
 42
0.000000
  0
VERTEX
  8
BG_SILKSCREEN_TOP
 10
19.327800
 20
17.270800
 40
0.000000
 41
0.000000
 42
0.000000
  0
VERTEX
  8
BG_SILKSCREEN_TOP
 10
19.330200
 20
17.356800
 40
0.000000
 41
0.000000
 42
0.000000
  0
VERTEX
  8
BG_SILKSCREEN_TOP
 10
19.332400
 20
17.442800
 40
0.000000
 41
0.000000
 42
0.000000
  0
VERTEX
  8
BG_SILKSCREEN_TOP
 10
19.334400
 20
17.528800
 40
0.000000
 41
0.000000
 42
0.000000
  0
VERTEX
  8
BG_SILKSCREEN_TOP
 10
19.336600
 20
17.614800
 40
0.000000
 41
0.000000
 42
0.000000
  0
VERTEX
  8
BG_SILKSCREEN_TOP
 10
19.338600
 20
17.700800
 40
0.000000
 41
0.000000
 42
0.000000
  0
VERTEX
  8
BG_SILKSCREEN_TOP
 10
18.630200
 20
17.700800
 40
0.000000
 41
0.000000
 42
0.000000
  0
VERTEX
  8
BG_SILKSCREEN_TOP
 10
18.630200
 20
17.419000
 40
0.000000
 41
0.000000
 42
0.000000
  0
VERTEX
  8
BG_SILKSCREEN_TOP
 10
18.827400
 20
17.419000
 40
0.000000
 41
0.000000
 42
0.000000
  0
VERTEX
  8
BG_SILKSCREEN_TOP
 10
18.827200
 20
17.358800
 40
0.000000
 41
0.000000
 42
0.000000
  0
VERTEX
  8
BG_SILKSCREEN_TOP
 10
18.827200
 20
17.238200
 40
0.000000
 41
0.000000
 42
0.000000
  0
VERTEX
  8
BG_SILKSCREEN_TOP
 10
18.826400
 20
17.178000
 40
0.000000
 41
0.000000
 42
0.000000
  0
VERTEX
  8
BG_SILKSCREEN_TOP
 10
18.823000
 20
17.118000
 40
0.000000
 41
0.000000
 42
0.000000
  0
VERTEX
  8
BG_SILKSCREEN_TOP
 10
18.816600
 20
17.058200
 40
0.000000
 41
0.000000
 42
0.000000
  0
VERTEX
  8
BG_SILKSCREEN_TOP
 10
18.798600
 20
17.001400
 40
0.000000
 41
0.000000
 42
0.000000
  0
VERTEX
  8
BG_SILKSCREEN_TOP
 10
18.765400
 20
16.953600
 40
0.000000
 41
0.000000
 42
0.000000
  0
VERTEX
  8
BG_SILKSCREEN_TOP
 10
18.715200
 20
16.925600
 40
0.000000
 41
0.000000
 42
0.000000
  0
VERTEX
  8
BG_SILKSCREEN_TOP
 10
18.659600
 20
16.913800
 40
0.000000
 41
0.000000
 42
0.000000
  0
VERTEX
  8
BG_SILKSCREEN_TOP
 10
18.603200
 20
16.912800
 40
0.000000
 41
0.000000
 42
0.000000
  0
VERTEX
  8
BG_SILKSCREEN_TOP
 10
18.547600
 20
16.921400
 40
0.000000
 41
0.000000
 42
0.000000
  0
VERTEX
  8
BG_SILKSCREEN_TOP
 10
18.495600
 20
16.942200
 40
0.000000
 41
0.000000
 42
0.000000
  0
VERTEX
  8
BG_SILKSCREEN_TOP
 10
18.452800
 20
16.977400
 40
0.000000
 41
0.000000
 42
0.000000
  0
VERTEX
  8
BG_SILKSCREEN_TOP
 10
18.427600
 20
17.026000
 40
0.000000
 41
0.000000
 42
0.000000
  0
VERTEX
  8
BG_SILKSCREEN_TOP
 10
18.415800
 20
17.079200
 40
0.000000
 41
0.000000
 42
0.000000
  0
VERTEX
  8
BG_SILKSCREEN_TOP
 10
18.410600
 20
17.133400
 40
0.000000
 41
0.000000
 42
0.000000
  0
VERTEX
  8
BG_SILKSCREEN_TOP
 10
18.407600
 20
17.187800
 40
0.000000
 41
0.000000
 42
0.000000
  0
VERTEX
  8
BG_SILKSCREEN_TOP
 10
18.406200
 20
17.242200
 40
0.000000
 41
0.000000
 42
0.000000
  0
VERTEX
  8
BG_SILKSCREEN_TOP
 10
18.405400
 20
17.351000
 40
0.000000
 41
0.000000
 42
0.000000
  0
VERTEX
  8
BG_SILKSCREEN_TOP
 10
18.404800
 20
17.514200
 40
0.000000
 41
0.000000
 42
0.000000
  0
VERTEX
  8
BG_SILKSCREEN_TOP
 10
18.404800
 20
17.677600
 40
0.000000
 41
0.000000
 42
0.000000
  0
VERTEX
  8
BG_SILKSCREEN_TOP
 10
18.405600
 20
17.895200
 40
0.000000
 41
0.000000
 42
0.000000
  0
VERTEX
  8
BG_SILKSCREEN_TOP
 10
18.406000
 20
17.949600
 40
0.000000
 41
0.000000
 42
0.000000
  0
VERTEX
  8
BG_SILKSCREEN_TOP
 10
18.406800
 20
18.004000
 40
0.000000
 41
0.000000
 42
0.000000
  0
VERTEX
  8
BG_SILKSCREEN_TOP
 10
18.409600
 20
18.058200
 40
0.000000
 41
0.000000
 42
0.000000
  0
VERTEX
  8
BG_SILKSCREEN_TOP
 10
18.414600
 20
18.112400
 40
0.000000
 41
0.000000
 42
0.000000
  0
VERTEX
  8
BG_SILKSCREEN_TOP
 10
18.427600
 20
18.164800
 40
0.000000
 41
0.000000
 42
0.000000
  0
VERTEX
  8
BG_SILKSCREEN_TOP
 10
18.452800
 20
18.212000
 40
0.000000
 41
0.000000
 42
0.000000
  0
VERTEX
  8
BG_SILKSCREEN_TOP
 10
18.490800
 20
18.248600
 40
0.000000
 41
0.000000
 42
0.000000
  0
VERTEX
  8
BG_SILKSCREEN_TOP
 10
18.536400
 20
18.275000
 40
0.000000
 41
0.000000
 42
0.000000
  0
VERTEX
  8
BG_SILKSCREEN_TOP
 10
18.586200
 20
18.290600
 40
0.000000
 41
0.000000
 42
0.000000
  0
VERTEX
  8
BG_SILKSCREEN_TOP
 10
18.636800
 20
18.293600
 40
0.000000
 41
0.000000
 42
0.000000
  0
VERTEX
  8
BG_SILKSCREEN_TOP
 10
18.686800
 20
18.282800
 40
0.000000
 41
0.000000
 42
0.000000
  0
VERTEX
  8
BG_SILKSCREEN_TOP
 10
18.730600
 20
18.260200
 40
0.000000
 41
0.000000
 42
0.000000
  0
VERTEX
  8
BG_SILKSCREEN_TOP
 10
18.767800
 20
18.227800
 40
0.000000
 41
0.000000
 42
0.000000
  0
VERTEX
  8
BG_SILKSCREEN_TOP
 10
18.795800
 20
18.187600
 40
0.000000
 41
0.000000
 42
0.000000
  0
VERTEX
  8
BG_SILKSCREEN_TOP
 10
18.814400
 20
18.143600
 40
0.000000
 41
0.000000
 42
0.000000
  0
VERTEX
  8
BG_SILKSCREEN_TOP
 10
18.825000
 20
18.096600
 40
0.000000
 41
0.000000
 42
0.000000
  0
VERTEX
  8
BG_SILKSCREEN_TOP
 10
18.827400
 20
18.049000
 40
0.000000
 41
0.000000
 42
0.000000
  0
VERTEX
  8
BG_SILKSCREEN_TOP
 10
18.827400
 20
17.954200
 40
0.000000
 41
0.000000
 42
0.000000
  0
VERTEX
  8
BG_SILKSCREEN_TOP
 10
19.334400
 20
17.954200
 40
0.000000
 41
0.000000
 42
0.000000
  0
VERTEX
  8
BG_SILKSCREEN_TOP
 10
19.334200
 20
17.979800
 40
0.000000
 41
0.000000
 42
0.000000
  0
VERTEX
  8
BG_SILKSCREEN_TOP
 10
19.334000
 20
18.005200
 40
0.000000
 41
0.000000
 42
0.000000
  0
VERTEX
  8
BG_SILKSCREEN_TOP
 10
19.334000
 20
18.030600
 40
0.000000
 41
0.000000
 42
0.000000
  0
VERTEX
  8
BG_SILKSCREEN_TOP
 10
19.333800
 20
18.056200
 40
0.000000
 41
0.000000
 42
0.000000
  0
VERTEX
  8
BG_SILKSCREEN_TOP
 10
19.333600
 20
18.081600
 40
0.000000
 41
0.000000
 42
0.000000
  0
VERTEX
  8
BG_SILKSCREEN_TOP
 10
19.332600
 20
18.107000
 40
0.000000
 41
0.000000
 42
0.000000
  0
VERTEX
  8
BG_SILKSCREEN_TOP
 10
19.330400
 20
18.132200
 40
0.000000
 41
0.000000
 42
0.000000
  0
VERTEX
  8
BG_SILKSCREEN_TOP
 10
19.327000
 20
18.157400
 40
0.000000
 41
0.000000
 42
0.000000
  0
VERTEX
  8
BG_SILKSCREEN_TOP
 10
19.322600
 20
18.182600
 40
0.000000
 41
0.000000
 42
0.000000
  0
VERTEX
  8
BG_SILKSCREEN_TOP
 10
19.317000
 20
18.207400
 40
0.000000
 41
0.000000
 42
0.000000
  0
VERTEX
  8
BG_SILKSCREEN_TOP
 10
19.310400
 20
18.231800
 40
0.000000
 41
0.000000
 42
0.000000
  0
VERTEX
  8
BG_SILKSCREEN_TOP
 10
19.302600
 20
18.255800
 40
0.000000
 41
0.000000
 42
0.000000
  0
VERTEX
  8
BG_SILKSCREEN_TOP
 10
19.293800
 20
18.279400
 40
0.000000
 41
0.000000
 42
0.000000
  0
VERTEX
  8
BG_SILKSCREEN_TOP
 10
19.284000
 20
18.302600
 40
0.000000
 41
0.000000
 42
0.000000
  0
VERTEX
  8
BG_SILKSCREEN_TOP
 10
19.273000
 20
18.325400
 40
0.000000
 41
0.000000
 42
0.000000
  0
VERTEX
  8
BG_SILKSCREEN_TOP
 10
19.261000
 20
18.347600
 40
0.000000
 41
0.000000
 42
0.000000
  0
VERTEX
  8
BG_SILKSCREEN_TOP
 10
19.248200
 20
18.369200
 40
0.000000
 41
0.000000
 42
0.000000
  0
VERTEX
  8
BG_SILKSCREEN_TOP
 10
19.234200
 20
18.390200
 40
0.000000
 41
0.000000
 42
0.000000
  0
VERTEX
  8
BG_SILKSCREEN_TOP
 10
19.219600
 20
18.410200
 40
0.000000
 41
0.000000
 42
0.000000
  0
VERTEX
  8
BG_SILKSCREEN_TOP
 10
19.203800
 20
18.429800
 40
0.000000
 41
0.000000
 42
0.000000
  0
VERTEX
  8
BG_SILKSCREEN_TOP
 10
19.187400
 20
18.448600
 40
0.000000
 41
0.000000
 42
0.000000
  0
VERTEX
  8
BG_SILKSCREEN_TOP
 10
19.170000
 20
18.466800
 40
0.000000
 41
0.000000
 42
0.000000
  0
VERTEX
  8
BG_SILKSCREEN_TOP
 10
19.151800
 20
18.484000
 40
0.000000
 41
0.000000
 42
0.000000
  0
VERTEX
  8
BG_SILKSCREEN_TOP
 10
19.132800
 20
18.500400
 40
0.000000
 41
0.000000
 42
0.000000
  0
VERTEX
  8
BG_SILKSCREEN_TOP
 10
19.113400
 20
18.515800
 40
0.000000
 41
0.000000
 42
0.000000
  0
VERTEX
  8
BG_SILKSCREEN_TOP
 10
19.093200
 20
18.530400
 40
0.000000
 41
0.000000
 42
0.000000
  0
VERTEX
  8
BG_SILKSCREEN_TOP
 10
19.072400
 20
18.544000
 40
0.000000
 41
0.000000
 42
0.000000
  0
VERTEX
  8
BG_SILKSCREEN_TOP
 10
19.051200
 20
18.556800
 40
0.000000
 41
0.000000
 42
0.000000
  0
VERTEX
  8
BG_SILKSCREEN_TOP
 10
19.029200
 20
18.568600
 40
0.000000
 41
0.000000
 42
0.000000
  0
VERTEX
  8
BG_SILKSCREEN_TOP
 10
19.006800
 20
18.579400
 40
0.000000
 41
0.000000
 42
0.000000
  0
VERTEX
  8
BG_SILKSCREEN_TOP
 10
18.984000
 20
18.589000
 40
0.000000
 41
0.000000
 42
0.000000
  0
VERTEX
  8
BG_SILKSCREEN_TOP
 10
18.961000
 20
18.597800
 40
0.000000
 41
0.000000
 42
0.000000
  0
VERTEX
  8
BG_SILKSCREEN_TOP
 10
18.937400
 20
18.605400
 40
0.000000
 41
0.000000
 42
0.000000
  0
VERTEX
  8
BG_SILKSCREEN_TOP
 10
18.913600
 20
18.612000
 40
0.000000
 41
0.000000
 42
0.000000
  0
VERTEX
  8
BG_SILKSCREEN_TOP
 10
18.889400
 20
18.617400
 40
0.000000
 41
0.000000
 42
0.000000
  0
VERTEX
  8
BG_SILKSCREEN_TOP
 10
18.865200
 20
18.621600
 40
0.000000
 41
0.000000
 42
0.000000
  0
VERTEX
  8
BG_SILKSCREEN_TOP
 10
18.840800
 20
18.625400
 40
0.000000
 41
0.000000
 42
0.000000
  0
VERTEX
  8
BG_SILKSCREEN_TOP
 10
18.816400
 20
18.628800
 40
0.000000
 41
0.000000
 42
0.000000
  0
VERTEX
  8
BG_SILKSCREEN_TOP
 10
18.792000
 20
18.632000
 40
0.000000
 41
0.000000
 42
0.000000
  0
VERTEX
  8
BG_SILKSCREEN_TOP
 10
18.767400
 20
18.634800
 40
0.000000
 41
0.000000
 42
0.000000
  0
VERTEX
  8
BG_SILKSCREEN_TOP
 10
18.743000
 20
18.637400
 40
0.000000
 41
0.000000
 42
0.000000
  0
VERTEX
  8
BG_SILKSCREEN_TOP
 10
18.718400
 20
18.639600
 40
0.000000
 41
0.000000
 42
0.000000
  0
VERTEX
  8
BG_SILKSCREEN_TOP
 10
18.693800
 20
18.641400
 40
0.000000
 41
0.000000
 42
0.000000
  0
VERTEX
  8
BG_SILKSCREEN_TOP
 10
18.669200
 20
18.643000
 40
0.000000
 41
0.000000
 42
0.000000
  0
VERTEX
  8
BG_SILKSCREEN_TOP
 10
18.644600
 20
18.644400
 40
0.000000
 41
0.000000
 42
0.000000
  0
VERTEX
  8
BG_SILKSCREEN_TOP
 10
18.620000
 20
18.645400
 40
0.000000
 41
0.000000
 42
0.000000
  0
VERTEX
  8
BG_SILKSCREEN_TOP
 10
18.595400
 20
18.646000
 40
0.000000
 41
0.000000
 42
0.000000
  0
VERTEX
  8
BG_SILKSCREEN_TOP
 10
18.570800
 20
18.646400
 40
0.000000
 41
0.000000
 42
0.000000
  0
VERTEX
  8
BG_SILKSCREEN_TOP
 10
18.546200
 20
18.646400
 40
0.000000
 41
0.000000
 42
0.000000
  0
VERTEX
  8
BG_SILKSCREEN_TOP
 10
18.521600
 20
18.646200
 40
0.000000
 41
0.000000
 42
0.000000
  0
SEQEND
  0
POLYLINE
  8
BG_SILKSCREEN_TOP
 66
1
 70
1
 40
0.000000
 41
0.000000
 39
0.000000
  0
VERTEX
  8
BG_SILKSCREEN_TOP
 10
14.630200
 20
17.753800
 40
0.000000
 41
0.000000
 42
0.000000
  0
VERTEX
  8
BG_SILKSCREEN_TOP
 10
14.629800
 20
17.599000
 40
0.000000
 41
0.000000
 42
0.000000
  0
VERTEX
  8
BG_SILKSCREEN_TOP
 10
14.629600
 20
17.521800
 40
0.000000
 41
0.000000
 42
0.000000
  0
VERTEX
  8
BG_SILKSCREEN_TOP
 10
14.629400
 20
17.444400
 40
0.000000
 41
0.000000
 42
0.000000
  0
VERTEX
  8
BG_SILKSCREEN_TOP
 10
14.629000
 20
17.367200
 40
0.000000
 41
0.000000
 42
0.000000
  0
VERTEX
  8
BG_SILKSCREEN_TOP
 10
14.628600
 20
17.289800
 40
0.000000
 41
0.000000
 42
0.000000
  0
VERTEX
  8
BG_SILKSCREEN_TOP
 10
14.626400
 20
17.212600
 40
0.000000
 41
0.000000
 42
0.000000
  0
VERTEX
  8
BG_SILKSCREEN_TOP
 10
14.622200
 20
17.135400
 40
0.000000
 41
0.000000
 42
0.000000
  0
VERTEX
  8
BG_SILKSCREEN_TOP
 10
14.612400
 20
17.058800
 40
0.000000
 41
0.000000
 42
0.000000
  0
VERTEX
  8
BG_SILKSCREEN_TOP
 10
14.589800
 20
16.985600
 40
0.000000
 41
0.000000
 42
0.000000
  0
VERTEX
  8
BG_SILKSCREEN_TOP
 10
14.542000
 20
16.927600
 40
0.000000
 41
0.000000
 42
0.000000
  0
VERTEX
  8
BG_SILKSCREEN_TOP
 10
14.476600
 20
16.892200
 40
0.000000
 41
0.000000
 42
0.000000
  0
VERTEX
  8
BG_SILKSCREEN_TOP
 10
14.403600
 20
16.883000
 40
0.000000
 41
0.000000
 42
0.000000
  0
VERTEX
  8
BG_SILKSCREEN_TOP
 10
14.333400
 20
16.900400
 40
0.000000
 41
0.000000
 42
0.000000
  0
VERTEX
  8
BG_SILKSCREEN_TOP
 10
14.275600
 20
16.942800
 40
0.000000
 41
0.000000
 42
0.000000
  0
VERTEX
  8
BG_SILKSCREEN_TOP
 10
14.244200
 20
17.004800
 40
0.000000
 41
0.000000
 42
0.000000
  0
VERTEX
  8
BG_SILKSCREEN_TOP
 10
14.232800
 20
17.073400
 40
0.000000
 41
0.000000
 42
0.000000
  0
VERTEX
  8
BG_SILKSCREEN_TOP
 10
14.226800
 20
17.142800
 40
0.000000
 41
0.000000
 42
0.000000
  0
VERTEX
  8
BG_SILKSCREEN_TOP
 10
14.223000
 20
17.212200
 40
0.000000
 41
0.000000
 42
0.000000
  0
VERTEX
  8
BG_SILKSCREEN_TOP
 10
14.220600
 20
17.281600
 40
0.000000
 41
0.000000
 42
0.000000
  0
VERTEX
  8
BG_SILKSCREEN_TOP
 10
14.219400
 20
17.351000
 40
0.000000
 41
0.000000
 42
0.000000
  0
VERTEX
  8
BG_SILKSCREEN_TOP
 10
14.218200
 20
17.420600
 40
0.000000
 41
0.000000
 42
0.000000
  0
VERTEX
  8
BG_SILKSCREEN_TOP
 10
14.217200
 20
17.490000
 40
0.000000
 41
0.000000
 42
0.000000
  0
VERTEX
  8
BG_SILKSCREEN_TOP
 10
14.216200
 20
17.559600
 40
0.000000
 41
0.000000
 42
0.000000
  0
VERTEX
  8
BG_SILKSCREEN_TOP
 10
14.215400
 20
17.629000
 40
0.000000
 41
0.000000
 42
0.000000
  0
VERTEX
  8
BG_SILKSCREEN_TOP
 10
14.214600
 20
17.698600
 40
0.000000
 41
0.000000
 42
0.000000
  0
VERTEX
  8
BG_SILKSCREEN_TOP
 10
14.213800
 20
17.768000
 40
0.000000
 41
0.000000
 42
0.000000
  0
VERTEX
  8
BG_SILKSCREEN_TOP
 10
14.213000
 20
17.837600
 40
0.000000
 41
0.000000
 42
0.000000
  0
VERTEX
  8
BG_SILKSCREEN_TOP
 10
14.212400
 20
17.907000
 40
0.000000
 41
0.000000
 42
0.000000
  0
VERTEX
  8
BG_SILKSCREEN_TOP
 10
14.211600
 20
17.976600
 40
0.000000
 41
0.000000
 42
0.000000
  0
VERTEX
  8
BG_SILKSCREEN_TOP
 10
14.211000
 20
18.046000
 40
0.000000
 41
0.000000
 42
0.000000
  0
VERTEX
  8
BG_SILKSCREEN_TOP
 10
14.210200
 20
18.115600
 40
0.000000
 41
0.000000
 42
0.000000
  0
VERTEX
  8
BG_SILKSCREEN_TOP
 10
14.209400
 20
18.185000
 40
0.000000
 41
0.000000
 42
0.000000
  0
VERTEX
  8
BG_SILKSCREEN_TOP
 10
14.208800
 20
18.254600
 40
0.000000
 41
0.000000
 42
0.000000
  0
VERTEX
  8
BG_SILKSCREEN_TOP
 10
14.208000
 20
18.324200
 40
0.000000
 41
0.000000
 42
0.000000
  0
VERTEX
  8
BG_SILKSCREEN_TOP
 10
14.207400
 20
18.393600
 40
0.000000
 41
0.000000
 42
0.000000
  0
VERTEX
  8
BG_SILKSCREEN_TOP
 10
14.206600
 20
18.463200
 40
0.000000
 41
0.000000
 42
0.000000
  0
VERTEX
  8
BG_SILKSCREEN_TOP
 10
14.206000
 20
18.532600
 40
0.000000
 41
0.000000
 42
0.000000
  0
VERTEX
  8
BG_SILKSCREEN_TOP
 10
14.205200
 20
18.602200
 40
0.000000
 41
0.000000
 42
0.000000
  0
VERTEX
  8
BG_SILKSCREEN_TOP
 10
13.728800
 20
18.602200
 40
0.000000
 41
0.000000
 42
0.000000
  0
VERTEX
  8
BG_SILKSCREEN_TOP
 10
13.728800
 20
17.659400
 40
0.000000
 41
0.000000
 42
0.000000
  0
VERTEX
  8
BG_SILKSCREEN_TOP
 10
13.729200
 20
17.554600
 40
0.000000
 41
0.000000
 42
0.000000
  0
VERTEX
  8
BG_SILKSCREEN_TOP
 10
13.729800
 20
17.449800
 40
0.000000
 41
0.000000
 42
0.000000
  0
VERTEX
  8
BG_SILKSCREEN_TOP
 10
13.730600
 20
17.345000
 40
0.000000
 41
0.000000
 42
0.000000
  0
VERTEX
  8
BG_SILKSCREEN_TOP
 10
13.731600
 20
17.240400
 40
0.000000
 41
0.000000
 42
0.000000
  0
VERTEX
  8
BG_SILKSCREEN_TOP
 10
13.733200
 20
17.135600
 40
0.000000
 41
0.000000
 42
0.000000
  0
VERTEX
  8
BG_SILKSCREEN_TOP
 10
13.739800
 20
17.031200
 40
0.000000
 41
0.000000
 42
0.000000
  0
VERTEX
  8
BG_SILKSCREEN_TOP
 10
13.752800
 20
16.927400
 40
0.000000
 41
0.000000
 42
0.000000
  0
VERTEX
  8
BG_SILKSCREEN_TOP
 10
13.782600
 20
16.827800
 40
0.000000
 41
0.000000
 42
0.000000
  0
VERTEX
  8
BG_SILKSCREEN_TOP
 10
13.835800
 20
16.739800
 40
0.000000
 41
0.000000
 42
0.000000
  0
VERTEX
  8
BG_SILKSCREEN_TOP
 10
13.909000
 20
16.668000
 40
0.000000
 41
0.000000
 42
0.000000
  0
VERTEX
  8
BG_SILKSCREEN_TOP
 10
13.994600
 20
16.612400
 40
0.000000
 41
0.000000
 42
0.000000
  0
VERTEX
  8
BG_SILKSCREEN_TOP
 10
14.088400
 20
16.573200
 40
0.000000
 41
0.000000
 42
0.000000
  0
VERTEX
  8
BG_SILKSCREEN_TOP
 10
14.187000
 20
16.549600
 40
0.000000
 41
0.000000
 42
0.000000
  0
VERTEX
  8
BG_SILKSCREEN_TOP
 10
14.287600
 20
16.538200
 40
0.000000
 41
0.000000
 42
0.000000
  0
VERTEX
  8
BG_SILKSCREEN_TOP
 10
14.388800
 20
16.533600
 40
0.000000
 41
0.000000
 42
0.000000
  0
VERTEX
  8
BG_SILKSCREEN_TOP
 10
14.489800
 20
16.534800
 40
0.000000
 41
0.000000
 42
0.000000
  0
VERTEX
  8
BG_SILKSCREEN_TOP
 10
14.590400
 20
16.544200
 40
0.000000
 41
0.000000
 42
0.000000
  0
VERTEX
  8
BG_SILKSCREEN_TOP
 10
14.689800
 20
16.561400
 40
0.000000
 41
0.000000
 42
0.000000
  0
VERTEX
  8
BG_SILKSCREEN_TOP
 10
14.785800
 20
16.590600
 40
0.000000
 41
0.000000
 42
0.000000
  0
VERTEX
  8
BG_SILKSCREEN_TOP
 10
14.876400
 20
16.634000
 40
0.000000
 41
0.000000
 42
0.000000
  0
VERTEX
  8
BG_SILKSCREEN_TOP
 10
14.957000
 20
16.691600
 40
0.000000
 41
0.000000
 42
0.000000
  0
VERTEX
  8
BG_SILKSCREEN_TOP
 10
15.024200
 20
16.764400
 40
0.000000
 41
0.000000
 42
0.000000
  0
VERTEX
  8
BG_SILKSCREEN_TOP
 10
15.073600
 20
16.848800
 40
0.000000
 41
0.000000
 42
0.000000
  0
VERTEX
  8
BG_SILKSCREEN_TOP
 10
15.102400
 20
16.942000
 40
0.000000
 41
0.000000
 42
0.000000
  0
VERTEX
  8
BG_SILKSCREEN_TOP
 10
15.110600
 20
17.038400
 40
0.000000
 41
0.000000
 42
0.000000
  0
VERTEX
  8
BG_SILKSCREEN_TOP
 10
15.113800
 20
17.135200
 40
0.000000
 41
0.000000
 42
0.000000
  0
VERTEX
  8
BG_SILKSCREEN_TOP
 10
15.116400
 20
17.232000
 40
0.000000
 41
0.000000
 42
0.000000
  0
VERTEX
  8
BG_SILKSCREEN_TOP
 10
15.118600
 20
17.328800
 40
0.000000
 41
0.000000
 42
0.000000
  0
VERTEX
  8
BG_SILKSCREEN_TOP
 10
15.120400
 20
17.425800
 40
0.000000
 41
0.000000
 42
0.000000
  0
VERTEX
  8
BG_SILKSCREEN_TOP
 10
15.121600
 20
17.522600
 40
0.000000
 41
0.000000
 42
0.000000
  0
VERTEX
  8
BG_SILKSCREEN_TOP
 10
15.122400
 20
17.619400
 40
0.000000
 41
0.000000
 42
0.000000
  0
VERTEX
  8
BG_SILKSCREEN_TOP
 10
15.123000
 20
17.716400
 40
0.000000
 41
0.000000
 42
0.000000
  0
VERTEX
  8
BG_SILKSCREEN_TOP
 10
15.123200
 20
17.813200
 40
0.000000
 41
0.000000
 42
0.000000
  0
VERTEX
  8
BG_SILKSCREEN_TOP
 10
15.123200
 20
18.588000
 40
0.000000
 41
0.000000
 42
0.000000
  0
VERTEX
  8
BG_SILKSCREEN_TOP
 10
15.113200
 20
18.588400
 40
0.000000
 41
0.000000
 42
0.000000
  0
VERTEX
  8
BG_SILKSCREEN_TOP
 10
15.103400
 20
18.588600
 40
0.000000
 41
0.000000
 42
0.000000
  0
VERTEX
  8
BG_SILKSCREEN_TOP
 10
15.093600
 20
18.589000
 40
0.000000
 41
0.000000
 42
0.000000
  0
VERTEX
  8
BG_SILKSCREEN_TOP
 10
15.083600
 20
18.589400
 40
0.000000
 41
0.000000
 42
0.000000
  0
VERTEX
  8
BG_SILKSCREEN_TOP
 10
15.073800
 20
18.589600
 40
0.000000
 41
0.000000
 42
0.000000
  0
VERTEX
  8
BG_SILKSCREEN_TOP
 10
15.064000
 20
18.590000
 40
0.000000
 41
0.000000
 42
0.000000
  0
VERTEX
  8
BG_SILKSCREEN_TOP
 10
15.054200
 20
18.590200
 40
0.000000
 41
0.000000
 42
0.000000
  0
VERTEX
  8
BG_SILKSCREEN_TOP
 10
15.044200
 20
18.590600
 40
0.000000
 41
0.000000
 42
0.000000
  0
VERTEX
  8
BG_SILKSCREEN_TOP
 10
15.034400
 20
18.591000
 40
0.000000
 41
0.000000
 42
0.000000
  0
VERTEX
  8
BG_SILKSCREEN_TOP
 10
15.024600
 20
18.591200
 40
0.000000
 41
0.000000
 42
0.000000
  0
VERTEX
  8
BG_SILKSCREEN_TOP
 10
15.014600
 20
18.591600
 40
0.000000
 41
0.000000
 42
0.000000
  0
VERTEX
  8
BG_SILKSCREEN_TOP
 10
15.004800
 20
18.591800
 40
0.000000
 41
0.000000
 42
0.000000
  0
VERTEX
  8
BG_SILKSCREEN_TOP
 10
14.985200
 20
18.592600
 40
0.000000
 41
0.000000
 42
0.000000
  0
VERTEX
  8
BG_SILKSCREEN_TOP
 10
14.975200
 20
18.592800
 40
0.000000
 41
0.000000
 42
0.000000
  0
VERTEX
  8
BG_SILKSCREEN_TOP
 10
14.955600
 20
18.593600
 40
0.000000
 41
0.000000
 42
0.000000
  0
VERTEX
  8
BG_SILKSCREEN_TOP
 10
14.945600
 20
18.593800
 40
0.000000
 41
0.000000
 42
0.000000
  0
VERTEX
  8
BG_SILKSCREEN_TOP
 10
14.935800
 20
18.594200
 40
0.000000
 41
0.000000
 42
0.000000
  0
VERTEX
  8
BG_SILKSCREEN_TOP
 10
14.926000
 20
18.594400
 40
0.000000
 41
0.000000
 42
0.000000
  0
VERTEX
  8
BG_SILKSCREEN_TOP
 10
14.916000
 20
18.594800
 40
0.000000
 41
0.000000
 42
0.000000
  0
VERTEX
  8
BG_SILKSCREEN_TOP
 10
14.906200
 20
18.595200
 40
0.000000
 41
0.000000
 42
0.000000
  0
VERTEX
  8
BG_SILKSCREEN_TOP
 10
14.896400
 20
18.595400
 40
0.000000
 41
0.000000
 42
0.000000
  0
VERTEX
  8
BG_SILKSCREEN_TOP
 10
14.886600
 20
18.595800
 40
0.000000
 41
0.000000
 42
0.000000
  0
VERTEX
  8
BG_SILKSCREEN_TOP
 10
14.876600
 20
18.596200
 40
0.000000
 41
0.000000
 42
0.000000
  0
VERTEX
  8
BG_SILKSCREEN_TOP
 10
14.866800
 20
18.596400
 40
0.000000
 41
0.000000
 42
0.000000
  0
VERTEX
  8
BG_SILKSCREEN_TOP
 10
14.857000
 20
18.596800
 40
0.000000
 41
0.000000
 42
0.000000
  0
VERTEX
  8
BG_SILKSCREEN_TOP
 10
14.847000
 20
18.597200
 40
0.000000
 41
0.000000
 42
0.000000
  0
VERTEX
  8
BG_SILKSCREEN_TOP
 10
14.837200
 20
18.597400
 40
0.000000
 41
0.000000
 42
0.000000
  0
VERTEX
  8
BG_SILKSCREEN_TOP
 10
14.827400
 20
18.597800
 40
0.000000
 41
0.000000
 42
0.000000
  0
VERTEX
  8
BG_SILKSCREEN_TOP
 10
14.817600
 20
18.598000
 40
0.000000
 41
0.000000
 42
0.000000
  0
VERTEX
  8
BG_SILKSCREEN_TOP
 10
14.807600
 20
18.598400
 40
0.000000
 41
0.000000
 42
0.000000
  0
VERTEX
  8
BG_SILKSCREEN_TOP
 10
14.797800
 20
18.598800
 40
0.000000
 41
0.000000
 42
0.000000
  0
VERTEX
  8
BG_SILKSCREEN_TOP
 10
14.788000
 20
18.599000
 40
0.000000
 41
0.000000
 42
0.000000
  0
VERTEX
  8
BG_SILKSCREEN_TOP
 10
14.778000
 20
18.599400
 40
0.000000
 41
0.000000
 42
0.000000
  0
VERTEX
  8
BG_SILKSCREEN_TOP
 10
14.768200
 20
18.599800
 40
0.000000
 41
0.000000
 42
0.000000
  0
VERTEX
  8
BG_SILKSCREEN_TOP
 10
14.758400
 20
18.600000
 40
0.000000
 41
0.000000
 42
0.000000
  0
VERTEX
  8
BG_SILKSCREEN_TOP
 10
14.748400
 20
18.600400
 40
0.000000
 41
0.000000
 42
0.000000
  0
VERTEX
  8
BG_SILKSCREEN_TOP
 10
14.738600
 20
18.600800
 40
0.000000
 41
0.000000
 42
0.000000
  0
VERTEX
  8
BG_SILKSCREEN_TOP
 10
14.728800
 20
18.601000
 40
0.000000
 41
0.000000
 42
0.000000
  0
VERTEX
  8
BG_SILKSCREEN_TOP
 10
14.719000
 20
18.601400
 40
0.000000
 41
0.000000
 42
0.000000
  0
VERTEX
  8
BG_SILKSCREEN_TOP
 10
14.709000
 20
18.601800
 40
0.000000
 41
0.000000
 42
0.000000
  0
VERTEX
  8
BG_SILKSCREEN_TOP
 10
14.699200
 20
18.602000
 40
0.000000
 41
0.000000
 42
0.000000
  0
VERTEX
  8
BG_SILKSCREEN_TOP
 10
14.689400
 20
18.602400
 40
0.000000
 41
0.000000
 42
0.000000
  0
VERTEX
  8
BG_SILKSCREEN_TOP
 10
14.679400
 20
18.602600
 40
0.000000
 41
0.000000
 42
0.000000
  0
VERTEX
  8
BG_SILKSCREEN_TOP
 10
14.659800
 20
18.603400
 40
0.000000
 41
0.000000
 42
0.000000
  0
VERTEX
  8
BG_SILKSCREEN_TOP
 10
14.649800
 20
18.603600
 40
0.000000
 41
0.000000
 42
0.000000
  0
VERTEX
  8
BG_SILKSCREEN_TOP
 10
14.630200
 20
18.604400
 40
0.000000
 41
0.000000
 42
0.000000
  0
SEQEND
  0
POLYLINE
  8
BG_SILKSCREEN_TOP
 66
1
 70
1
 40
0.000000
 41
0.000000
 39
0.000000
  0
VERTEX
  8
BG_SILKSCREEN_TOP
 10
16.886600
 20
18.285200
 40
0.000000
 41
0.000000
 42
0.000000
  0
VERTEX
  8
BG_SILKSCREEN_TOP
 10
16.896200
 20
17.904800
 40
0.000000
 41
0.000000
 42
0.000000
  0
VERTEX
  8
BG_SILKSCREEN_TOP
 10
16.897800
 20
17.841600
 40
0.000000
 41
0.000000
 42
0.000000
  0
VERTEX
  8
BG_SILKSCREEN_TOP
 10
16.899400
 20
17.778200
 40
0.000000
 41
0.000000
 42
0.000000
  0
VERTEX
  8
BG_SILKSCREEN_TOP
 10
16.902200
 20
17.651400
 40
0.000000
 41
0.000000
 42
0.000000
  0
VERTEX
  8
BG_SILKSCREEN_TOP
 10
16.904600
 20
17.524600
 40
0.000000
 41
0.000000
 42
0.000000
  0
VERTEX
  8
BG_SILKSCREEN_TOP
 10
16.905600
 20
17.461200
 40
0.000000
 41
0.000000
 42
0.000000
  0
VERTEX
  8
BG_SILKSCREEN_TOP
 10
16.906200
 20
17.397800
 40
0.000000
 41
0.000000
 42
0.000000
  0
VERTEX
  8
BG_SILKSCREEN_TOP
 10
16.906400
 20
17.334400
 40
0.000000
 41
0.000000
 42
0.000000
  0
VERTEX
  8
BG_SILKSCREEN_TOP
 10
16.906200
 20
17.271000
 40
0.000000
 41
0.000000
 42
0.000000
  0
VERTEX
  8
BG_SILKSCREEN_TOP
 10
16.904600
 20
17.144200
 40
0.000000
 41
0.000000
 42
0.000000
  0
VERTEX
  8
BG_SILKSCREEN_TOP
 10
16.903400
 20
17.080800
 40
0.000000
 41
0.000000
 42
0.000000
  0
VERTEX
  8
BG_SILKSCREEN_TOP
 10
16.873800
 20
17.101000
 40
0.000000
 41
0.000000
 42
0.000000
  0
VERTEX
  8
BG_SILKSCREEN_TOP
 10
16.835800
 20
17.220200
 40
0.000000
 41
0.000000
 42
0.000000
  0
VERTEX
  8
BG_SILKSCREEN_TOP
 10
16.817000
 20
17.280000
 40
0.000000
 41
0.000000
 42
0.000000
  0
VERTEX
  8
BG_SILKSCREEN_TOP
 10
16.798400
 20
17.339800
 40
0.000000
 41
0.000000
 42
0.000000
  0
VERTEX
  8
BG_SILKSCREEN_TOP
 10
16.780000
 20
17.399600
 40
0.000000
 41
0.000000
 42
0.000000
  0
VERTEX
  8
BG_SILKSCREEN_TOP
 10
16.761800
 20
17.459600
 40
0.000000
 41
0.000000
 42
0.000000
  0
VERTEX
  8
BG_SILKSCREEN_TOP
 10
16.744000
 20
17.519600
 40
0.000000
 41
0.000000
 42
0.000000
  0
VERTEX
  8
BG_SILKSCREEN_TOP
 10
16.726400
 20
17.579600
 40
0.000000
 41
0.000000
 42
0.000000
  0
VERTEX
  8
BG_SILKSCREEN_TOP
 10
16.708800
 20
17.639800
 40
0.000000
 41
0.000000
 42
0.000000
  0
VERTEX
  8
BG_SILKSCREEN_TOP
 10
16.691400
 20
17.699800
 40
0.000000
 41
0.000000
 42
0.000000
  0
VERTEX
  8
BG_SILKSCREEN_TOP
 10
16.674200
 20
17.760000
 40
0.000000
 41
0.000000
 42
0.000000
  0
VERTEX
  8
BG_SILKSCREEN_TOP
 10
16.656800
 20
17.820200
 40
0.000000
 41
0.000000
 42
0.000000
  0
VERTEX
  8
BG_SILKSCREEN_TOP
 10
16.622400
 20
17.940600
 40
0.000000
 41
0.000000
 42
0.000000
  0
VERTEX
  8
BG_SILKSCREEN_TOP
 10
16.605000
 20
18.000800
 40
0.000000
 41
0.000000
 42
0.000000
  0
VERTEX
  8
BG_SILKSCREEN_TOP
 10
16.587800
 20
18.061000
 40
0.000000
 41
0.000000
 42
0.000000
  0
VERTEX
  8
BG_SILKSCREEN_TOP
 10
16.570400
 20
18.121200
 40
0.000000
 41
0.000000
 42
0.000000
  0
VERTEX
  8
BG_SILKSCREEN_TOP
 10
16.553200
 20
18.181200
 40
0.000000
 41
0.000000
 42
0.000000
  0
VERTEX
  8
BG_SILKSCREEN_TOP
 10
16.501000
 20
18.361800
 40
0.000000
 41
0.000000
 42
0.000000
  0
VERTEX
  8
BG_SILKSCREEN_TOP
 10
16.483600
 20
18.421800
 40
0.000000
 41
0.000000
 42
0.000000
  0
VERTEX
  8
BG_SILKSCREEN_TOP
 10
16.466200
 20
18.482000
 40
0.000000
 41
0.000000
 42
0.000000
  0
VERTEX
  8
BG_SILKSCREEN_TOP
 10
16.448400
 20
18.542000
 40
0.000000
 41
0.000000
 42
0.000000
  0
VERTEX
  8
BG_SILKSCREEN_TOP
 10
16.430800
 20
18.602200
 40
0.000000
 41
0.000000
 42
0.000000
  0
VERTEX
  8
BG_SILKSCREEN_TOP
 10
15.700600
 20
18.602200
 40
0.000000
 41
0.000000
 42
0.000000
  0
VERTEX
  8
BG_SILKSCREEN_TOP
 10
15.700600
 20
16.602200
 40
0.000000
 41
0.000000
 42
0.000000
  0
VERTEX
  8
BG_SILKSCREEN_TOP
 10
16.185400
 20
16.602200
 40
0.000000
 41
0.000000
 42
0.000000
  0
VERTEX
  8
BG_SILKSCREEN_TOP
 10
16.183800
 20
16.668000
 40
0.000000
 41
0.000000
 42
0.000000
  0
VERTEX
  8
BG_SILKSCREEN_TOP
 10
16.182000
 20
16.733800
 40
0.000000
 41
0.000000
 42
0.000000
  0
VERTEX
  8
BG_SILKSCREEN_TOP
 10
16.180400
 20
16.799400
 40
0.000000
 41
0.000000
 42
0.000000
  0
VERTEX
  8
BG_SILKSCREEN_TOP
 10
16.174000
 20
17.062600
 40
0.000000
 41
0.000000
 42
0.000000
  0
VERTEX
  8
BG_SILKSCREEN_TOP
 10
16.172200
 20
17.128400
 40
0.000000
 41
0.000000
 42
0.000000
  0
VERTEX
  8
BG_SILKSCREEN_TOP
 10
16.162600
 20
17.523200
 40
0.000000
 41
0.000000
 42
0.000000
  0
VERTEX
  8
BG_SILKSCREEN_TOP
 10
16.161400
 20
17.588800
 40
0.000000
 41
0.000000
 42
0.000000
  0
VERTEX
  8
BG_SILKSCREEN_TOP
 10
16.160000
 20
17.654600
 40
0.000000
 41
0.000000
 42
0.000000
  0
VERTEX
  8
BG_SILKSCREEN_TOP
 10
16.158000
 20
17.786200
 40
0.000000
 41
0.000000
 42
0.000000
  0
VERTEX
  8
BG_SILKSCREEN_TOP
 10
16.157400
 20
17.852000
 40
0.000000
 41
0.000000
 42
0.000000
  0
VERTEX
  8
BG_SILKSCREEN_TOP
 10
16.157200
 20
17.917800
 40
0.000000
 41
0.000000
 42
0.000000
  0
VERTEX
  8
BG_SILKSCREEN_TOP
 10
16.157600
 20
17.983600
 40
0.000000
 41
0.000000
 42
0.000000
  0
VERTEX
  8
BG_SILKSCREEN_TOP
 10
16.158200
 20
18.049400
 40
0.000000
 41
0.000000
 42
0.000000
  0
VERTEX
  8
BG_SILKSCREEN_TOP
 10
16.159000
 20
18.115200
 40
0.000000
 41
0.000000
 42
0.000000
  0
VERTEX
  8
BG_SILKSCREEN_TOP
 10
16.160000
 20
18.181000
 40
0.000000
 41
0.000000
 42
0.000000
  0
VERTEX
  8
BG_SILKSCREEN_TOP
 10
16.190400
 20
18.156000
 40
0.000000
 41
0.000000
 42
0.000000
  0
VERTEX
  8
BG_SILKSCREEN_TOP
 10
16.210600
 20
18.094200
 40
0.000000
 41
0.000000
 42
0.000000
  0
VERTEX
  8
BG_SILKSCREEN_TOP
 10
16.230600
 20
18.032200
 40
0.000000
 41
0.000000
 42
0.000000
  0
VERTEX
  8
BG_SILKSCREEN_TOP
 10
16.270600
 20
17.908600
 40
0.000000
 41
0.000000
 42
0.000000
  0
VERTEX
  8
BG_SILKSCREEN_TOP
 10
16.290400
 20
17.846600
 40
0.000000
 41
0.000000
 42
0.000000
  0
VERTEX
  8
BG_SILKSCREEN_TOP
 10
16.310000
 20
17.784600
 40
0.000000
 41
0.000000
 42
0.000000
  0
VERTEX
  8
BG_SILKSCREEN_TOP
 10
16.329400
 20
17.722600
 40
0.000000
 41
0.000000
 42
0.000000
  0
VERTEX
  8
BG_SILKSCREEN_TOP
 10
16.348600
 20
17.660400
 40
0.000000
 41
0.000000
 42
0.000000
  0
VERTEX
  8
BG_SILKSCREEN_TOP
 10
16.405600
 20
17.473800
 40
0.000000
 41
0.000000
 42
0.000000
  0
VERTEX
  8
BG_SILKSCREEN_TOP
 10
16.424400
 20
17.411600
 40
0.000000
 41
0.000000
 42
0.000000
  0
VERTEX
  8
BG_SILKSCREEN_TOP
 10
16.443000
 20
17.349400
 40
0.000000
 41
0.000000
 42
0.000000
  0
VERTEX
  8
BG_SILKSCREEN_TOP
 10
16.461800
 20
17.287000
 40
0.000000
 41
0.000000
 42
0.000000
  0
VERTEX
  8
BG_SILKSCREEN_TOP
 10
16.480600
 20
17.224800
 40
0.000000
 41
0.000000
 42
0.000000
  0
VERTEX
  8
BG_SILKSCREEN_TOP
 10
16.499200
 20
17.162600
 40
0.000000
 41
0.000000
 42
0.000000
  0
VERTEX
  8
BG_SILKSCREEN_TOP
 10
16.518000
 20
17.100200
 40
0.000000
 41
0.000000
 42
0.000000
  0
VERTEX
  8
BG_SILKSCREEN_TOP
 10
16.536600
 20
17.038000
 40
0.000000
 41
0.000000
 42
0.000000
  0
VERTEX
  8
BG_SILKSCREEN_TOP
 10
16.555400
 20
16.975800
 40
0.000000
 41
0.000000
 42
0.000000
  0
VERTEX
  8
BG_SILKSCREEN_TOP
 10
16.574200
 20
16.913400
 40
0.000000
 41
0.000000
 42
0.000000
  0
VERTEX
  8
BG_SILKSCREEN_TOP
 10
16.592800
 20
16.851200
 40
0.000000
 41
0.000000
 42
0.000000
  0
VERTEX
  8
BG_SILKSCREEN_TOP
 10
16.611600
 20
16.789000
 40
0.000000
 41
0.000000
 42
0.000000
  0
VERTEX
  8
BG_SILKSCREEN_TOP
 10
16.630400
 20
16.726600
 40
0.000000
 41
0.000000
 42
0.000000
  0
VERTEX
  8
BG_SILKSCREEN_TOP
 10
16.649000
 20
16.664400
 40
0.000000
 41
0.000000
 42
0.000000
  0
VERTEX
  8
BG_SILKSCREEN_TOP
 10
16.667800
 20
16.602200
 40
0.000000
 41
0.000000
 42
0.000000
  0
VERTEX
  8
BG_SILKSCREEN_TOP
 10
17.362600
 20
16.602200
 40
0.000000
 41
0.000000
 42
0.000000
  0
VERTEX
  8
BG_SILKSCREEN_TOP
 10
17.362600
 20
18.602200
 40
0.000000
 41
0.000000
 42
0.000000
  0
VERTEX
  8
BG_SILKSCREEN_TOP
 10
16.878400
 20
18.602200
 40
0.000000
 41
0.000000
 42
0.000000
  0
VERTEX
  8
BG_SILKSCREEN_TOP
 10
16.884800
 20
18.348600
 40
0.000000
 41
0.000000
 42
0.000000
  0
SEQEND
  0
POLYLINE
  8
MA_NCLEGEND-1-2
 66
1
 70
1
 40
0.000000
 41
0.000000
 39
0.000000
  0
VERTEX
  8
MA_NCLEGEND-1-2
 10
0.000000
 20
-24.100000
 40
0.000000
 41
0.000000
 42
0.000000
  0
VERTEX
  8
MA_NCLEGEND-1-2
 10
0.000000
 20
-2.000000
 40
0.000000
 41
0.000000
 42
0.000000
  0
VERTEX
  8
MA_NCLEGEND-1-2
 10
42.200000
 20
-2.000000
 40
0.000000
 41
0.000000
 42
0.000000
  0
VERTEX
  8
MA_NCLEGEND-1-2
 10
42.200000
 20
-24.100000
 40
0.000000
 41
0.000000
 42
0.000000
  0
SEQEND
  0
TEXT
  8
BG_SILKSCREEN_TOP
 10
7.500000
 20
12.750000
 11
0.000000
 21
0.000000
 40
0.900000
 41
0.888889
 50
0.000000
  7
STANDARD
 71
0
 72
0
  1
Z15 16 LH502C
 73
0
  0
TEXT
  8
BG_SILKSCREEN_TOP
 10
7.500000
 20
10.000000
 11
0.000000
 21
0.000000
 40
1.000000
 41
0.900000
 50
0.000000
  7
STANDARD
 71
0
 72
0
  1
200429 rev.0
 73
0
  0
TEXT
  8
BG_SILKSCREEN_TOP
 10
118.250000
 20
34.250000
 11
0.000000
 21
0.000000
 40
1.000000
 41
1.200000
 50
0.000000
  7
STANDARD
 71
0
 72
0
  1
Tc
 73
0
  0
TEXT
  8
MA_NCLEGEND-1-2
 10
38.350000
 20
-22.450000
 11
38.850000
 21
-22.450000
 40
1.500000
 41
0.733333
 50
0.000000
  7
STANDARD
 71
0
 72
1
  1
4
 73
0
  0
TEXT
  8
MA_NCLEGEND-1-2
 10
29.450000
 20
-22.450000
 11
29.950000
 21
-22.450000
 40
1.500000
 41
0.733333
 50
0.000000
  7
STANDARD
 71
0
 72
1
  1
NON-PLATED
 73
0
  0
TEXT
  8
MA_NCLEGEND-1-2
 10
15.600000
 20
-22.450000
 11
16.100000
 21
-22.450000
 40
1.500000
 41
0.733333
 50
0.000000
  7
STANDARD
 71
0
 72
1
  1
3.2
 73
0
  0
TEXT
  8
MA_NCLEGEND-1-2
 10
38.350000
 20
-17.650000
 11
38.850000
 21
-17.650000
 40
1.500000
 41
0.733333
 50
0.000000
  7
STANDARD
 71
0
 72
1
  1
16
 73
0
  0
TEXT
  8
MA_NCLEGEND-1-2
 10
29.450000
 20
-17.650000
 11
29.950000
 21
-17.650000
 40
1.500000
 41
0.733333
 50
0.000000
  7
STANDARD
 71
0
 72
1
  1
NON-PLATED
 73
0
  0
TEXT
  8
MA_NCLEGEND-1-2
 10
15.600000
 20
-17.650000
 11
16.100000
 21
-17.650000
 40
1.500000
 41
0.733333
 50
0.000000
  7
STANDARD
 71
0
 72
1
  1
2.1
 73
0
  0
TEXT
  8
MA_NCLEGEND-1-2
 10
38.350000
 20
-13.750000
 11
38.850000
 21
-13.750000
 40
1.500000
 41
0.733333
 50
0.000000
  7
STANDARD
 71
0
 72
1
  1
QTY
 73
0
  0
TEXT
  8
MA_NCLEGEND-1-2
 10
29.450000
 20
-13.750000
 11
29.950000
 21
-13.750000
 40
1.500000
 41
0.733333
 50
0.000000
  7
STANDARD
 71
0
 72
1
  1
PLATED
 73
0
  0
TEXT
  8
MA_NCLEGEND-1-2
 10
15.600000
 20
-13.750000
 11
16.100000
 21
-13.750000
 40
1.500000
 41
0.733333
 50
0.000000
  7
STANDARD
 71
0
 72
1
  1
SIZE
 73
0
  0
TEXT
  8
MA_NCLEGEND-1-2
 10
3.400000
 20
-13.750000
 11
3.900000
 21
-13.750000
 40
1.500000
 41
0.733333
 50
0.000000
  7
STANDARD
 71
0
 72
1
  1
FIGURE
 73
0
  0
TEXT
  8
MA_NCLEGEND-1-2
 10
20.600000
 20
-10.750000
 11
21.100000
 21
-10.750000
 40
1.500000
 41
0.733333
 50
0.000000
  7
STANDARD
 71
0
 72
1
  1
ALL UNITS ARE IN MILLIMETERS
 73
0
  0
TEXT
  8
MA_NCLEGEND-1-2
 10
20.600000
 20
-4.250000
 11
21.100000
 21
-4.250000
 40
1.500000
 41
0.733333
 50
0.000000
  7
STANDARD
 71
0
 72
1
  1
DRILL CHART: TOP to BOTTOM
 73
0
  0
INSERT
  8
MA_NCLEGEND-1-2
  2
FIGURE_CIRCLE
 10
3.900000
 20
-21.700000
 41
3.200000
 42
3.200000
 50
0.000000
  0
TEXT
  8
MA_NCLEGEND-1-2
 10
2.833333
 20
-22.500000
 11
3.900000
 21
-21.700000
 40
1.600000
 41
1.000000
 50
0.000000
  7
STANDARD
 71
0
 72
1
  1
B
 73
2
  0
INSERT
  8
MA_NCLEGEND-1-2
  2
FIGURE_CIRCLE
 10
3.900000
 20
-16.900000
 41
2.100000
 42
2.100000
 50
0.000000
  0
TEXT
  8
MA_NCLEGEND-1-2
 10
3.200000
 20
-17.425000
 11
3.900000
 21
-16.900000
 40
1.050000
 41
1.000000
 50
0.000000
  7
STANDARD
 71
0
 72
1
  1
A
 73
2
  0
ENDSEC
  0
EOF
