  0
SECTION
  2
HEADER
  9
$ACADVER
  1
AC1009
  9
$INSBASE
 10
0.000000
 20
0.000000
  9
$LIMMIN
 10
-1000.000000
 20
-1000.000000
  9
$LIMMAX
 10
4000.000000
 20
4000.000000
  9
$EXTMIN
 10
-1000.000000
 20
-1000.000000
  9
$EXTMAX
 10
4000.000000
 20
4000.000000
  9
$ATTMODE
 70
0
  9
$LUNITS
 70
2
  9
$LUPREC
 70
4
  9
$THICKNESS
 40
0.264160
  0
ENDSEC
  0
SECTION
  2
TABLES
  0
TABLE
  2
LTYPE
 70
1
  0
LTYPE
  3
Solid Line
  2
CONTINUOUS
 70
0
 72
65
 73
0
 40
0.000000
  0
ENDTAB
  0
TABLE
  2
LAYER
 70
13
  0
LAYER
  2
BG_SOLDERMASK_TOP
 70
0
 62
3
  6
CONTINUOUS
  0
LAYER
  2
BG_SILKSCREEN_TOP
 70
0
 62
20
  6
CONTINUOUS
  0
LAYER
  2
BG_OUTLINE
 70
0
 62
7
  6
CONTINUOUS
  0
LAYER
  2
ET_TOP
 70
0
 62
140
  6
CONTINUOUS
  0
LAYER
  2
MA_NCLEGEND-1-2
 70
0
 62
1
  6
CONTINUOUS
  0
LAYER
  2
PG_PASTEMASK_TOP
 70
0
 62
12
  6
CONTINUOUS
  0
LAYER
  2
PG_SOLDERMASK_TOP
 70
0
 62
3
  6
CONTINUOUS
  0
LAYER
  2
PG_SILKSCREEN_TOP
 70
0
 62
20
  6
CONTINUOUS
  0
LAYER
  2
PIN_TOP
 70
0
 62
140
  6
CONTINUOUS
  0
LAYER
  2
PIN_SOLDERMASK_TOP
 70
0
 62
3
  6
CONTINUOUS
  0
LAYER
  2
RD_SILKSCREEN_TOP
 70
0
 62
230
  6
CONTINUOUS
  0
LAYER
  2
VC_TOP
 70
0
 62
140
  6
CONTINUOUS
  0
LAYER
  2
PLAN_TOP
 70
0
 62
70
  6
CONTINUOUS
  0
ENDTAB
  0
TABLE
  2
STYLE
 70
1
  0
STYLE
  2
STANDARD
 70
0
 40
0.000000
 41
1.000000
 50
0.000000
 71
0
 42
0.200000
  3
txt
  0
ENDTAB
  0
ENDSEC
  0
SECTION
  2
BLOCKS
  0
BLOCK
  8
0
  2
FIGURE_CIRCLE
 70
0
 10
0.000000
 20
0.000000
  0
CIRCLE
  8
0
 10
0.000000
 20
0.000000
 40
0.500000
  0
ENDBLK
  0
BLOCK
  8
0
  2
FIGURE_SQUARE
 70
0
 10
0.000000
 20
0.000000
  0
POLYLINE
  8
0
 66
1
 70
1
 40
0.000000
 41
0.000000
 39
0.000000
  0
VERTEX
  8
0
 10
-0.500000
 20
-0.500000
 40
0.000000
 41
0.000000
 42
0.000000
  0
VERTEX
  8
0
 10
-0.500000
 20
0.500000
 40
0.000000
 41
0.000000
 42
0.000000
  0
VERTEX
  8
0
 10
0.500000
 20
0.500000
 40
0.000000
 41
0.000000
 42
0.000000
  0
VERTEX
  8
0
 10
0.500000
 20
-0.500000
 40
0.000000
 41
0.000000
 42
0.000000
  0
SEQEND
  0
ENDBLK
  0
BLOCK
  8
0
  2
FIGURE_HEX
 70
0
 10
0.000000
 20
0.000000
  0
POLYLINE
  8
0
 66
1
 70
1
 40
0.000000
 41
0.000000
 39
0.000000
  0
VERTEX
  8
0
 10
-0.500000
 20
0.000000
 40
0.000000
 41
0.000000
 42
0.000000
  0
VERTEX
  8
0
 10
-0.250000
 20
0.500000
 40
0.000000
 41
0.000000
 42
0.000000
  0
VERTEX
  8
0
 10
0.250000
 20
0.500000
 40
0.000000
 41
0.000000
 42
0.000000
  0
VERTEX
  8
0
 10
0.500000
 20
0.000000
 40
0.000000
 41
0.000000
 42
0.000000
  0
VERTEX
  8
0
 10
0.250000
 20
-0.500000
 40
0.000000
 41
0.000000
 42
0.000000
  0
VERTEX
  8
0
 10
-0.250000
 20
-0.500000
 40
0.000000
 41
0.000000
 42
0.000000
  0
SEQEND
  0
ENDBLK
  0
BLOCK
  8
0
  2
FIGURE_OCT
 70
0
 10
0.000000
 20
0.000000
  0
POLYLINE
  8
0
 66
1
 70
1
 40
0.000000
 41
0.000000
 39
0.000000
  0
VERTEX
  8
0
 10
-0.500000
 20
-0.207100
 40
0.000000
 41
0.000000
 42
0.000000
  0
VERTEX
  8
0
 10
-0.500000
 20
0.207100
 40
0.000000
 41
0.000000
 42
0.000000
  0
VERTEX
  8
0
 10
-0.207100
 20
0.500000
 40
0.000000
 41
0.000000
 42
0.000000
  0
VERTEX
  8
0
 10
0.207100
 20
0.500000
 40
0.000000
 41
0.000000
 42
0.000000
  0
VERTEX
  8
0
 10
0.500000
 20
0.207100
 40
0.000000
 41
0.000000
 42
0.000000
  0
VERTEX
  8
0
 10
0.500000
 20
-0.207100
 40
0.000000
 41
0.000000
 42
0.000000
  0
VERTEX
  8
0
 10
0.207100
 20
-0.500000
 40
0.000000
 41
0.000000
 42
0.000000
  0
VERTEX
  8
0
 10
-0.207100
 20
-0.500000
 40
0.000000
 41
0.000000
 42
0.000000
  0
SEQEND
  0
ENDBLK
  0
BLOCK
  8
0
  2
FIGURE_OBLONG
 70
0
 10
0.000000
 20
0.000000
  0
POLYLINE
  8
0
 66
1
 70
1
 40
0.000000
 41
0.000000
 39
0.000000
  0
VERTEX
  8
0
 10
-0.500000
 20
-0.125000
 40
0.000000
 41
0.000000
 42
0.000000
  0
VERTEX
  8
0
 10
-0.500000
 20
0.125000
 40
0.000000
 41
0.000000
 42
0.000000
  0
VERTEX
  8
0
 10
-0.416000
 20
0.375000
 40
0.000000
 41
0.000000
 42
0.000000
  0
VERTEX
  8
0
 10
-0.250000
 20
0.500000
 40
0.000000
 41
0.000000
 42
0.000000
  0
VERTEX
  8
0
 10
0.250000
 20
0.500000
 40
0.000000
 41
0.000000
 42
0.000000
  0
VERTEX
  8
0
 10
0.416000
 20
0.375000
 40
0.000000
 41
0.000000
 42
0.000000
  0
VERTEX
  8
0
 10
0.500000
 20
0.125000
 40
0.000000
 41
0.000000
 42
0.000000
  0
VERTEX
  8
0
 10
0.500000
 20
-0.125000
 40
0.000000
 41
0.000000
 42
0.000000
  0
VERTEX
  8
0
 10
0.416000
 20
-0.375000
 40
0.000000
 41
0.000000
 42
0.000000
  0
VERTEX
  8
0
 10
0.250000
 20
-0.500000
 40
0.000000
 41
0.000000
 42
0.000000
  0
VERTEX
  8
0
 10
-0.250000
 20
-0.500000
 40
0.000000
 41
0.000000
 42
0.000000
  0
VERTEX
  8
0
 10
-0.416000
 20
-0.375000
 40
0.000000
 41
0.000000
 42
0.000000
  0
SEQEND
  0
ENDBLK
  0
BLOCK
  8
0
  2
FIGURE_TRI
 70
0
 10
0.000000
 20
0.000000
  0
POLYLINE
  8
0
 66
1
 70
1
 40
0.000000
 41
0.000000
 39
0.000000
  0
VERTEX
  8
0
 10
-0.500000
 20
-0.500000
 40
0.000000
 41
0.000000
 42
0.000000
  0
VERTEX
  8
0
 10
0.000000
 20
0.500000
 40
0.000000
 41
0.000000
 42
0.000000
  0
VERTEX
  8
0
 10
0.500000
 20
-0.500000
 40
0.000000
 41
0.000000
 42
0.000000
  0
SEQEND
  0
ENDBLK
  0
BLOCK
  8
0
  2
FIGURE_CROSS
 70
0
 10
0.000000
 20
0.000000
  0
POLYLINE
  8
0
 66
1
 70
0
 40
0.000000
 41
0.000000
 39
0.000000
  0
VERTEX
  8
0
 10
-0.500000
 20
0.000000
 40
0.000000
 41
0.000000
 42
0.000000
  0
VERTEX
  8
0
 10
0.500000
 20
0.000000
 40
0.000000
 41
0.000000
 42
0.000000
  0
SEQEND
  0
POLYLINE
  8
0
 66
1
 70
0
 40
0.000000
 41
0.000000
 39
0.000000
  0
VERTEX
  8
0
 10
0.000000
 20
0.500000
 40
0.000000
 41
0.000000
 42
0.000000
  0
VERTEX
  8
0
 10
0.000000
 20
-0.500000
 40
0.000000
 41
0.000000
 42
0.000000
  0
SEQEND
  0
ENDBLK
  0
BLOCK
  8
0
  2
FIGURE_DIAMOND
 70
0
 10
0.000000
 20
0.000000
  0
POLYLINE
  8
0
 66
1
 70
1
 40
0.000000
 41
0.000000
 39
0.000000
  0
VERTEX
  8
0
 10
-0.500000
 20
0.000000
 40
0.000000
 41
0.000000
 42
0.000000
  0
VERTEX
  8
0
 10
0.000000
 20
0.500000
 40
0.000000
 41
0.000000
 42
0.000000
  0
VERTEX
  8
0
 10
0.500000
 20
0.000000
 40
0.000000
 41
0.000000
 42
0.000000
  0
VERTEX
  8
0
 10
0.000000
 20
-0.500000
 40
0.000000
 41
0.000000
 42
0.000000
  0
SEQEND
  0
ENDBLK
  0
ENDSEC
  0
SECTION
  2
ENTITIES
  0
POLYLINE
  8
ET_TOP
 66
1
 70
1
 40
0.000000
 41
0.000000
 39
0.000000
  0
VERTEX
  8
ET_TOP
 10
64.850000
 20
1.000100
 40
0.000000
 41
0.000000
 42
0.000000
  0
VERTEX
  8
ET_TOP
 10
49.150000
 20
1.000100
 40
0.000000
 41
0.000000
 42
0.000000
  0
VERTEX
  8
ET_TOP
 10
49.150000
 20
10.150000
 40
0.000000
 41
0.000000
 42
0.000000
  0
VERTEX
  8
ET_TOP
 10
64.850000
 20
10.150000
 40
0.000000
 41
0.000000
 42
0.000000
  0
SEQEND
  0
POLYLINE
  8
ET_TOP
 66
1
 70
1
 40
0.000000
 41
0.000000
 39
0.000000
  0
VERTEX
  8
ET_TOP
 10
63.800200
 20
6.399800
 40
0.000000
 41
0.000000
 42
0.000000
  0
VERTEX
  8
ET_TOP
 10
63.600200
 20
6.399800
 40
0.000000
 41
0.000000
 42
0.000000
  0
VERTEX
  8
ET_TOP
 10
63.600200
 20
6.199800
 40
0.000000
 41
0.000000
 42
0.000000
  0
VERTEX
  8
ET_TOP
 10
63.399400
 20
6.199800
 40
0.000000
 41
0.000000
 42
0.000000
  0
VERTEX
  8
ET_TOP
 10
63.399400
 20
6.399800
 40
0.000000
 41
0.000000
 42
0.000000
  0
VERTEX
  8
ET_TOP
 10
63.199400
 20
6.399800
 40
0.000000
 41
0.000000
 42
0.000000
  0
VERTEX
  8
ET_TOP
 10
63.199400
 20
6.600600
 40
0.000000
 41
0.000000
 42
0.000000
  0
VERTEX
  8
ET_TOP
 10
63.399400
 20
6.600600
 40
0.000000
 41
0.000000
 42
0.000000
  0
VERTEX
  8
ET_TOP
 10
63.399400
 20
6.800600
 40
0.000000
 41
0.000000
 42
0.000000
  0
VERTEX
  8
ET_TOP
 10
63.600200
 20
6.800600
 40
0.000000
 41
0.000000
 42
0.000000
  0
VERTEX
  8
ET_TOP
 10
63.600200
 20
6.600600
 40
0.000000
 41
0.000000
 42
0.000000
  0
VERTEX
  8
ET_TOP
 10
63.800200
 20
6.600600
 40
0.000000
 41
0.000000
 42
0.000000
  0
SEQEND
  0
POLYLINE
  8
ET_TOP
 66
1
 70
1
 40
0.000000
 41
0.000000
 39
0.000000
  0
VERTEX
  8
ET_TOP
 10
50.399800
 20
3.875200
 40
0.000000
 41
0.000000
 42
0.000000
  0
VERTEX
  8
ET_TOP
 10
50.600200
 20
3.875200
 40
0.000000
 41
0.000000
 42
0.000000
  0
VERTEX
  8
ET_TOP
 10
50.600200
 20
3.399800
 40
0.000000
 41
0.000000
 42
0.000000
  0
VERTEX
  8
ET_TOP
 10
50.124800
 20
3.399800
 40
0.000000
 41
0.000000
 42
0.000000
  0
VERTEX
  8
ET_TOP
 10
50.124800
 20
3.600200
 40
0.000000
 41
0.000000
 42
0.000000
  0
VERTEX
  8
ET_TOP
 10
50.399800
 20
3.600200
 40
0.000000
 41
0.000000
 42
0.000000
  0
SEQEND
  0
POLYLINE
  8
ET_TOP
 66
1
 70
1
 40
0.000000
 41
0.000000
 39
0.000000
  0
VERTEX
  8
ET_TOP
 10
51.600200
 20
5.000000
 40
0.000000
 41
0.000000
 42
1.000000
  0
VERTEX
  8
ET_TOP
 10
50.899800
 20
5.000000
 40
0.000000
 41
0.000000
 42
1.000000
  0
SEQEND
  0
POLYLINE
  8
ET_TOP
 66
1
 70
1
 40
0.000000
 41
0.000000
 39
0.000000
  0
VERTEX
  8
ET_TOP
 10
58.450200
 20
4.400200
 40
0.000000
 41
0.000000
 42
0.000000
  0
VERTEX
  8
ET_TOP
 10
58.450200
 20
1.199800
 40
0.000000
 41
0.000000
 42
0.000000
  0
VERTEX
  8
ET_TOP
 10
55.249800
 20
1.199800
 40
0.000000
 41
0.000000
 42
0.000000
  0
VERTEX
  8
ET_TOP
 10
55.249800
 20
4.400200
 40
0.000000
 41
0.000000
 42
0.000000
  0
SEQEND
  0
POLYLINE
  8
ET_TOP
 66
1
 70
1
 40
0.000000
 41
0.000000
 39
0.000000
  0
VERTEX
  8
ET_TOP
 10
63.100200
 20
5.000000
 40
0.000000
 41
0.000000
 42
1.000000
  0
VERTEX
  8
ET_TOP
 10
62.399800
 20
5.000000
 40
0.000000
 41
0.000000
 42
1.000000
  0
SEQEND
  0
POLYLINE
  8
ET_TOP
 66
1
 70
1
 40
0.000000
 41
0.000000
 39
0.000000
  0
VERTEX
  8
ET_TOP
 10
68.999900
 20
1.000100
 40
0.000000
 41
0.000000
 42
0.000000
  0
VERTEX
  8
ET_TOP
 10
65.150000
 20
1.000100
 40
0.000000
 41
0.000000
 42
0.000000
  0
VERTEX
  8
ET_TOP
 10
65.150000
 20
24.400000
 40
0.000000
 41
0.000000
 42
0.000000
  0
VERTEX
  8
ET_TOP
 10
68.999900
 20
24.400000
 40
0.000000
 41
0.000000
 42
0.000000
  0
SEQEND
  0
POLYLINE
  8
ET_TOP
 66
1
 70
1
 40
0.000000
 41
0.000000
 39
0.000000
  0
VERTEX
  8
ET_TOP
 10
66.199800
 20
19.600200
 40
0.000000
 41
0.000000
 42
0.000000
  0
VERTEX
  8
ET_TOP
 10
66.399800
 20
19.600200
 40
0.000000
 41
0.000000
 42
0.000000
  0
VERTEX
  8
ET_TOP
 10
66.399800
 20
19.800200
 40
0.000000
 41
0.000000
 42
0.000000
  0
VERTEX
  8
ET_TOP
 10
66.600600
 20
19.800200
 40
0.000000
 41
0.000000
 42
0.000000
  0
VERTEX
  8
ET_TOP
 10
66.600600
 20
19.600200
 40
0.000000
 41
0.000000
 42
0.000000
  0
VERTEX
  8
ET_TOP
 10
66.800600
 20
19.600200
 40
0.000000
 41
0.000000
 42
0.000000
  0
VERTEX
  8
ET_TOP
 10
66.800600
 20
19.399400
 40
0.000000
 41
0.000000
 42
0.000000
  0
VERTEX
  8
ET_TOP
 10
66.600600
 20
19.399400
 40
0.000000
 41
0.000000
 42
0.000000
  0
VERTEX
  8
ET_TOP
 10
66.600600
 20
19.199400
 40
0.000000
 41
0.000000
 42
0.000000
  0
VERTEX
  8
ET_TOP
 10
66.399800
 20
19.199400
 40
0.000000
 41
0.000000
 42
0.000000
  0
VERTEX
  8
ET_TOP
 10
66.399800
 20
19.399400
 40
0.000000
 41
0.000000
 42
0.000000
  0
VERTEX
  8
ET_TOP
 10
66.199800
 20
19.399400
 40
0.000000
 41
0.000000
 42
0.000000
  0
SEQEND
  0
POLYLINE
  8
ET_TOP
 66
1
 70
1
 40
0.000000
 41
0.000000
 39
0.000000
  0
VERTEX
  8
ET_TOP
 10
66.399800
 20
3.875200
 40
0.000000
 41
0.000000
 42
0.000000
  0
VERTEX
  8
ET_TOP
 10
66.600200
 20
3.875200
 40
0.000000
 41
0.000000
 42
0.000000
  0
VERTEX
  8
ET_TOP
 10
66.600200
 20
3.399800
 40
0.000000
 41
0.000000
 42
0.000000
  0
VERTEX
  8
ET_TOP
 10
66.124800
 20
3.399800
 40
0.000000
 41
0.000000
 42
0.000000
  0
VERTEX
  8
ET_TOP
 10
66.124800
 20
3.600200
 40
0.000000
 41
0.000000
 42
0.000000
  0
VERTEX
  8
ET_TOP
 10
66.399800
 20
3.600200
 40
0.000000
 41
0.000000
 42
0.000000
  0
SEQEND
  0
POLYLINE
  8
ET_TOP
 66
1
 70
1
 40
0.000000
 41
0.000000
 39
0.000000
  0
VERTEX
  8
ET_TOP
 10
67.600200
 20
5.000000
 40
0.000000
 41
0.000000
 42
1.000000
  0
VERTEX
  8
ET_TOP
 10
66.899800
 20
5.000000
 40
0.000000
 41
0.000000
 42
1.000000
  0
SEQEND
  0
POLYLINE
  8
ET_TOP
 66
1
 70
1
 40
0.000000
 41
0.000000
 39
0.000000
  0
VERTEX
  8
ET_TOP
 10
67.600200
 20
21.000000
 40
0.000000
 41
0.000000
 42
1.000000
  0
VERTEX
  8
ET_TOP
 10
66.899800
 20
21.000000
 40
0.000000
 41
0.000000
 42
1.000000
  0
SEQEND
  0
POLYLINE
  8
ET_TOP
 66
1
 70
1
 40
0.000000
 41
0.000000
 39
0.000000
  0
VERTEX
  8
ET_TOP
 10
64.850000
 20
24.400000
 40
0.000000
 41
0.000000
 42
0.000000
  0
VERTEX
  8
ET_TOP
 10
64.850000
 20
10.900000
 40
0.000000
 41
0.000000
 42
0.000000
  0
VERTEX
  8
ET_TOP
 10
49.150000
 20
10.900000
 40
0.000000
 41
0.000000
 42
0.000000
  0
VERTEX
  8
ET_TOP
 10
49.150000
 20
24.400000
 40
0.000000
 41
0.000000
 42
0.000000
  0
SEQEND
  0
POLYLINE
  8
ET_TOP
 66
1
 70
1
 40
0.000000
 41
0.000000
 39
0.000000
  0
VERTEX
  8
ET_TOP
 10
63.600200
 20
22.124800
 40
0.000000
 41
0.000000
 42
0.000000
  0
VERTEX
  8
ET_TOP
 10
63.399800
 20
22.124800
 40
0.000000
 41
0.000000
 42
0.000000
  0
VERTEX
  8
ET_TOP
 10
63.399800
 20
22.600200
 40
0.000000
 41
0.000000
 42
0.000000
  0
VERTEX
  8
ET_TOP
 10
63.875200
 20
22.600200
 40
0.000000
 41
0.000000
 42
0.000000
  0
VERTEX
  8
ET_TOP
 10
63.875200
 20
22.399800
 40
0.000000
 41
0.000000
 42
0.000000
  0
VERTEX
  8
ET_TOP
 10
63.600200
 20
22.399800
 40
0.000000
 41
0.000000
 42
0.000000
  0
SEQEND
  0
POLYLINE
  8
ET_TOP
 66
1
 70
1
 40
0.000000
 41
0.000000
 39
0.000000
  0
VERTEX
  8
ET_TOP
 10
50.199800
 20
19.600200
 40
0.000000
 41
0.000000
 42
0.000000
  0
VERTEX
  8
ET_TOP
 10
50.399800
 20
19.600200
 40
0.000000
 41
0.000000
 42
0.000000
  0
VERTEX
  8
ET_TOP
 10
50.399800
 20
19.800200
 40
0.000000
 41
0.000000
 42
0.000000
  0
VERTEX
  8
ET_TOP
 10
50.600600
 20
19.800200
 40
0.000000
 41
0.000000
 42
0.000000
  0
VERTEX
  8
ET_TOP
 10
50.600600
 20
19.600200
 40
0.000000
 41
0.000000
 42
0.000000
  0
VERTEX
  8
ET_TOP
 10
50.800600
 20
19.600200
 40
0.000000
 41
0.000000
 42
0.000000
  0
VERTEX
  8
ET_TOP
 10
50.800600
 20
19.399400
 40
0.000000
 41
0.000000
 42
0.000000
  0
VERTEX
  8
ET_TOP
 10
50.600600
 20
19.399400
 40
0.000000
 41
0.000000
 42
0.000000
  0
VERTEX
  8
ET_TOP
 10
50.600600
 20
19.199400
 40
0.000000
 41
0.000000
 42
0.000000
  0
VERTEX
  8
ET_TOP
 10
50.399800
 20
19.199400
 40
0.000000
 41
0.000000
 42
0.000000
  0
VERTEX
  8
ET_TOP
 10
50.399800
 20
19.399400
 40
0.000000
 41
0.000000
 42
0.000000
  0
VERTEX
  8
ET_TOP
 10
50.199800
 20
19.399400
 40
0.000000
 41
0.000000
 42
0.000000
  0
SEQEND
  0
POLYLINE
  8
ET_TOP
 66
1
 70
1
 40
0.000000
 41
0.000000
 39
0.000000
  0
VERTEX
  8
ET_TOP
 10
51.600200
 20
21.000000
 40
0.000000
 41
0.000000
 42
1.000000
  0
VERTEX
  8
ET_TOP
 10
50.899800
 20
21.000000
 40
0.000000
 41
0.000000
 42
1.000000
  0
SEQEND
  0
POLYLINE
  8
ET_TOP
 66
1
 70
1
 40
0.000000
 41
0.000000
 39
0.000000
  0
VERTEX
  8
ET_TOP
 10
63.100200
 20
21.000000
 40
0.000000
 41
0.000000
 42
1.000000
  0
VERTEX
  8
ET_TOP
 10
62.399800
 20
21.000000
 40
0.000000
 41
0.000000
 42
1.000000
  0
SEQEND
  0
POLYLINE
  8
ET_TOP
 66
1
 70
1
 40
0.000000
 41
0.000000
 39
0.000000
  0
VERTEX
  8
ET_TOP
 10
40.100000
 20
10.900000
 40
0.000000
 41
0.000000
 42
0.000000
  0
VERTEX
  8
ET_TOP
 10
40.100000
 20
25.250000
 40
0.000000
 41
0.000000
 42
0.000000
  0
VERTEX
  8
ET_TOP
 10
5.750000
 20
25.250000
 40
0.000000
 41
0.000000
 42
0.000000
  0
VERTEX
  8
ET_TOP
 10
5.750000
 20
34.100000
 40
0.000000
 41
0.000000
 42
0.000000
  0
VERTEX
  8
ET_TOP
 10
10.081500
 20
34.100000
 40
0.000000
 41
0.000000
 42
0.833621
  0
VERTEX
  8
ET_TOP
 10
19.918500
 20
34.100000
 40
0.000000
 41
0.000000
 42
0.000000
  0
VERTEX
  8
ET_TOP
 10
42.352400
 20
34.100000
 40
0.000000
 41
0.000000
 42
0.745706
  0
VERTEX
  8
ET_TOP
 10
50.005400
 20
33.622100
 40
0.000000
 41
0.000000
 42
-0.724737
  0
VERTEX
  8
ET_TOP
 10
50.195300
 20
33.615300
 40
0.000000
 41
0.000000
 42
7.080923
  0
VERTEX
  8
ET_TOP
 10
50.195300
 20
36.384700
 40
0.000000
 41
0.000000
 42
-0.724737
  0
VERTEX
  8
ET_TOP
 10
50.005400
 20
36.377900
 40
0.000000
 41
0.000000
 42
0.483056
  0
VERTEX
  8
ET_TOP
 10
44.054900
 20
38.344100
 40
0.000000
 41
0.000000
 42
-0.596733
  0
VERTEX
  8
ET_TOP
 10
43.900000
 20
38.427700
 40
0.000000
 41
0.000000
 42
0.000000
  0
VERTEX
  8
ET_TOP
 10
43.900000
 20
56.600000
 40
0.000000
 41
0.000000
 42
0.000000
  0
VERTEX
  8
ET_TOP
 10
48.850000
 20
56.600000
 40
0.000000
 41
0.000000
 42
0.000000
  0
VERTEX
  8
ET_TOP
 10
48.850000
 20
42.600000
 40
0.000000
 41
0.000000
 42
0.000000
  0
VERTEX
  8
ET_TOP
 10
68.999900
 20
42.600000
 40
0.000000
 41
0.000000
 42
0.000000
  0
VERTEX
  8
ET_TOP
 10
68.999900
 20
37.037500
 40
0.000000
 41
0.000000
 42
-0.487674
  0
VERTEX
  8
ET_TOP
 10
68.875700
 20
36.940500
 40
0.000000
 41
0.000000
 42
1.280696
  0
VERTEX
  8
ET_TOP
 10
68.875700
 20
33.059500
 40
0.000000
 41
0.000000
 42
-0.487674
  0
VERTEX
  8
ET_TOP
 10
68.999900
 20
32.962500
 40
0.000000
 41
0.000000
 42
0.000000
  0
VERTEX
  8
ET_TOP
 10
68.999900
 20
25.250000
 40
0.000000
 41
0.000000
 42
0.000000
  0
VERTEX
  8
ET_TOP
 10
48.850000
 20
25.250000
 40
0.000000
 41
0.000000
 42
0.000000
  0
VERTEX
  8
ET_TOP
 10
48.850000
 20
10.900000
 40
0.000000
 41
0.000000
 42
0.000000
  0
SEQEND
  0
POLYLINE
  8
ET_TOP
 66
1
 70
1
 40
0.000000
 41
0.000000
 39
0.000000
  0
VERTEX
  8
ET_TOP
 10
47.600200
 20
50.124800
 40
0.000000
 41
0.000000
 42
0.000000
  0
VERTEX
  8
ET_TOP
 10
47.399800
 20
50.124800
 40
0.000000
 41
0.000000
 42
0.000000
  0
VERTEX
  8
ET_TOP
 10
47.399800
 20
50.600200
 40
0.000000
 41
0.000000
 42
0.000000
  0
VERTEX
  8
ET_TOP
 10
47.875200
 20
50.600200
 40
0.000000
 41
0.000000
 42
0.000000
  0
VERTEX
  8
ET_TOP
 10
47.875200
 20
50.399800
 40
0.000000
 41
0.000000
 42
0.000000
  0
VERTEX
  8
ET_TOP
 10
47.600200
 20
50.399800
 40
0.000000
 41
0.000000
 42
0.000000
  0
SEQEND
  0
POLYLINE
  8
ET_TOP
 66
1
 70
1
 40
0.000000
 41
0.000000
 39
0.000000
  0
VERTEX
  8
ET_TOP
 10
47.600200
 20
22.124800
 40
0.000000
 41
0.000000
 42
0.000000
  0
VERTEX
  8
ET_TOP
 10
47.399800
 20
22.124800
 40
0.000000
 41
0.000000
 42
0.000000
  0
VERTEX
  8
ET_TOP
 10
47.399800
 20
22.600200
 40
0.000000
 41
0.000000
 42
0.000000
  0
VERTEX
  8
ET_TOP
 10
47.875200
 20
22.600200
 40
0.000000
 41
0.000000
 42
0.000000
  0
VERTEX
  8
ET_TOP
 10
47.875200
 20
22.399800
 40
0.000000
 41
0.000000
 42
0.000000
  0
VERTEX
  8
ET_TOP
 10
47.600200
 20
22.399800
 40
0.000000
 41
0.000000
 42
0.000000
  0
SEQEND
  0
POLYLINE
  8
ET_TOP
 66
1
 70
1
 40
0.000000
 41
0.000000
 39
0.000000
  0
VERTEX
  8
ET_TOP
 10
35.250400
 20
30.150000
 40
0.000000
 41
0.000000
 42
1.000000
  0
VERTEX
  8
ET_TOP
 10
34.549600
 20
30.150000
 40
0.000000
 41
0.000000
 42
1.000000
  0
SEQEND
  0
POLYLINE
  8
ET_TOP
 66
1
 70
1
 40
0.000000
 41
0.000000
 39
0.000000
  0
VERTEX
  8
ET_TOP
 10
47.100200
 20
21.000000
 40
0.000000
 41
0.000000
 42
1.000000
  0
VERTEX
  8
ET_TOP
 10
46.399800
 20
21.000000
 40
0.000000
 41
0.000000
 42
1.000000
  0
SEQEND
  0
POLYLINE
  8
ET_TOP
 66
1
 70
1
 40
0.000000
 41
0.000000
 39
0.000000
  0
VERTEX
  8
ET_TOP
 10
47.100200
 20
49.000000
 40
0.000000
 41
0.000000
 42
1.000000
  0
VERTEX
  8
ET_TOP
 10
46.399800
 20
49.000000
 40
0.000000
 41
0.000000
 42
1.000000
  0
SEQEND
  0
POLYLINE
  8
ET_TOP
 66
1
 70
1
 40
0.000000
 41
0.000000
 39
0.000000
  0
VERTEX
  8
ET_TOP
 10
68.999900
 20
44.000000
 40
0.000000
 41
0.000000
 42
0.000000
  0
VERTEX
  8
ET_TOP
 10
65.150000
 20
44.000000
 40
0.000000
 41
0.000000
 42
0.000000
  0
VERTEX
  8
ET_TOP
 10
65.150000
 20
68.999900
 40
0.000000
 41
0.000000
 42
0.000000
  0
VERTEX
  8
ET_TOP
 10
68.999900
 20
68.999900
 40
0.000000
 41
0.000000
 42
0.000000
  0
SEQEND
  0
POLYLINE
  8
ET_TOP
 66
1
 70
1
 40
0.000000
 41
0.000000
 39
0.000000
  0
VERTEX
  8
ET_TOP
 10
66.399800
 20
63.875200
 40
0.000000
 41
0.000000
 42
0.000000
  0
VERTEX
  8
ET_TOP
 10
66.600200
 20
63.875200
 40
0.000000
 41
0.000000
 42
0.000000
  0
VERTEX
  8
ET_TOP
 10
66.600200
 20
63.399800
 40
0.000000
 41
0.000000
 42
0.000000
  0
VERTEX
  8
ET_TOP
 10
66.124800
 20
63.399800
 40
0.000000
 41
0.000000
 42
0.000000
  0
VERTEX
  8
ET_TOP
 10
66.124800
 20
63.600200
 40
0.000000
 41
0.000000
 42
0.000000
  0
VERTEX
  8
ET_TOP
 10
66.399800
 20
63.600200
 40
0.000000
 41
0.000000
 42
0.000000
  0
SEQEND
  0
POLYLINE
  8
ET_TOP
 66
1
 70
1
 40
0.000000
 41
0.000000
 39
0.000000
  0
VERTEX
  8
ET_TOP
 10
66.199800
 20
47.600200
 40
0.000000
 41
0.000000
 42
0.000000
  0
VERTEX
  8
ET_TOP
 10
66.399800
 20
47.600200
 40
0.000000
 41
0.000000
 42
0.000000
  0
VERTEX
  8
ET_TOP
 10
66.399800
 20
47.800200
 40
0.000000
 41
0.000000
 42
0.000000
  0
VERTEX
  8
ET_TOP
 10
66.600600
 20
47.800200
 40
0.000000
 41
0.000000
 42
0.000000
  0
VERTEX
  8
ET_TOP
 10
66.600600
 20
47.600200
 40
0.000000
 41
0.000000
 42
0.000000
  0
VERTEX
  8
ET_TOP
 10
66.800600
 20
47.600200
 40
0.000000
 41
0.000000
 42
0.000000
  0
VERTEX
  8
ET_TOP
 10
66.800600
 20
47.399400
 40
0.000000
 41
0.000000
 42
0.000000
  0
VERTEX
  8
ET_TOP
 10
66.600600
 20
47.399400
 40
0.000000
 41
0.000000
 42
0.000000
  0
VERTEX
  8
ET_TOP
 10
66.600600
 20
47.199400
 40
0.000000
 41
0.000000
 42
0.000000
  0
VERTEX
  8
ET_TOP
 10
66.399800
 20
47.199400
 40
0.000000
 41
0.000000
 42
0.000000
  0
VERTEX
  8
ET_TOP
 10
66.399800
 20
47.399400
 40
0.000000
 41
0.000000
 42
0.000000
  0
VERTEX
  8
ET_TOP
 10
66.199800
 20
47.399400
 40
0.000000
 41
0.000000
 42
0.000000
  0
SEQEND
  0
POLYLINE
  8
ET_TOP
 66
1
 70
1
 40
0.000000
 41
0.000000
 39
0.000000
  0
VERTEX
  8
ET_TOP
 10
67.600200
 20
49.000000
 40
0.000000
 41
0.000000
 42
1.000000
  0
VERTEX
  8
ET_TOP
 10
66.899800
 20
49.000000
 40
0.000000
 41
0.000000
 42
1.000000
  0
SEQEND
  0
POLYLINE
  8
ET_TOP
 66
1
 70
1
 40
0.000000
 41
0.000000
 39
0.000000
  0
VERTEX
  8
ET_TOP
 10
67.600200
 20
65.000000
 40
0.000000
 41
0.000000
 42
1.000000
  0
VERTEX
  8
ET_TOP
 10
66.899800
 20
65.000000
 40
0.000000
 41
0.000000
 42
1.000000
  0
SEQEND
  0
POLYLINE
  8
ET_TOP
 66
1
 70
1
 40
0.000000
 41
0.000000
 39
0.000000
  0
VERTEX
  8
ET_TOP
 10
64.850000
 20
57.450000
 40
0.000000
 41
0.000000
 42
0.000000
  0
VERTEX
  8
ET_TOP
 10
49.150000
 20
57.450000
 40
0.000000
 41
0.000000
 42
0.000000
  0
VERTEX
  8
ET_TOP
 10
49.150000
 20
68.999900
 40
0.000000
 41
0.000000
 42
0.000000
  0
VERTEX
  8
ET_TOP
 10
64.850000
 20
68.999900
 40
0.000000
 41
0.000000
 42
0.000000
  0
SEQEND
  0
POLYLINE
  8
ET_TOP
 66
1
 70
1
 40
0.000000
 41
0.000000
 39
0.000000
  0
VERTEX
  8
ET_TOP
 10
63.800200
 20
66.399800
 40
0.000000
 41
0.000000
 42
0.000000
  0
VERTEX
  8
ET_TOP
 10
63.600200
 20
66.399800
 40
0.000000
 41
0.000000
 42
0.000000
  0
VERTEX
  8
ET_TOP
 10
63.600200
 20
66.199800
 40
0.000000
 41
0.000000
 42
0.000000
  0
VERTEX
  8
ET_TOP
 10
63.399400
 20
66.199800
 40
0.000000
 41
0.000000
 42
0.000000
  0
VERTEX
  8
ET_TOP
 10
63.399400
 20
66.399800
 40
0.000000
 41
0.000000
 42
0.000000
  0
VERTEX
  8
ET_TOP
 10
63.199400
 20
66.399800
 40
0.000000
 41
0.000000
 42
0.000000
  0
VERTEX
  8
ET_TOP
 10
63.199400
 20
66.600600
 40
0.000000
 41
0.000000
 42
0.000000
  0
VERTEX
  8
ET_TOP
 10
63.399400
 20
66.600600
 40
0.000000
 41
0.000000
 42
0.000000
  0
VERTEX
  8
ET_TOP
 10
63.399400
 20
66.800600
 40
0.000000
 41
0.000000
 42
0.000000
  0
VERTEX
  8
ET_TOP
 10
63.600200
 20
66.800600
 40
0.000000
 41
0.000000
 42
0.000000
  0
VERTEX
  8
ET_TOP
 10
63.600200
 20
66.600600
 40
0.000000
 41
0.000000
 42
0.000000
  0
VERTEX
  8
ET_TOP
 10
63.800200
 20
66.600600
 40
0.000000
 41
0.000000
 42
0.000000
  0
SEQEND
  0
POLYLINE
  8
ET_TOP
 66
1
 70
1
 40
0.000000
 41
0.000000
 39
0.000000
  0
VERTEX
  8
ET_TOP
 10
50.399800
 20
63.875200
 40
0.000000
 41
0.000000
 42
0.000000
  0
VERTEX
  8
ET_TOP
 10
50.600200
 20
63.875200
 40
0.000000
 41
0.000000
 42
0.000000
  0
VERTEX
  8
ET_TOP
 10
50.600200
 20
63.399800
 40
0.000000
 41
0.000000
 42
0.000000
  0
VERTEX
  8
ET_TOP
 10
50.124800
 20
63.399800
 40
0.000000
 41
0.000000
 42
0.000000
  0
VERTEX
  8
ET_TOP
 10
50.124800
 20
63.600200
 40
0.000000
 41
0.000000
 42
0.000000
  0
VERTEX
  8
ET_TOP
 10
50.399800
 20
63.600200
 40
0.000000
 41
0.000000
 42
0.000000
  0
SEQEND
  0
POLYLINE
  8
ET_TOP
 66
1
 70
1
 40
0.000000
 41
0.000000
 39
0.000000
  0
VERTEX
  8
ET_TOP
 10
51.600200
 20
65.000000
 40
0.000000
 41
0.000000
 42
1.000000
  0
VERTEX
  8
ET_TOP
 10
50.899800
 20
65.000000
 40
0.000000
 41
0.000000
 42
1.000000
  0
SEQEND
  0
POLYLINE
  8
ET_TOP
 66
1
 70
1
 40
0.000000
 41
0.000000
 39
0.000000
  0
VERTEX
  8
ET_TOP
 10
63.100200
 20
65.000000
 40
0.000000
 41
0.000000
 42
1.000000
  0
VERTEX
  8
ET_TOP
 10
62.399800
 20
65.000000
 40
0.000000
 41
0.000000
 42
1.000000
  0
SEQEND
  0
POLYLINE
  8
ET_TOP
 66
1
 70
1
 40
0.000000
 41
0.000000
 39
0.000000
  0
VERTEX
  8
ET_TOP
 10
21.150000
 20
57.450000
 40
0.000000
 41
0.000000
 42
0.000000
  0
VERTEX
  8
ET_TOP
 10
21.150000
 20
68.999900
 40
0.000000
 41
0.000000
 42
0.000000
  0
VERTEX
  8
ET_TOP
 10
32.938200
 20
68.999900
 40
0.000000
 41
0.000000
 42
-0.471474
  0
VERTEX
  8
ET_TOP
 10
33.036400
 20
68.880900
 40
0.000000
 41
0.000000
 42
1.212621
  0
VERTEX
  8
ET_TOP
 10
36.963600
 20
68.880900
 40
0.000000
 41
0.000000
 42
-0.471474
  0
VERTEX
  8
ET_TOP
 10
37.061800
 20
68.999900
 40
0.000000
 41
0.000000
 42
0.000000
  0
VERTEX
  8
ET_TOP
 10
48.850000
 20
68.999900
 40
0.000000
 41
0.000000
 42
0.000000
  0
VERTEX
  8
ET_TOP
 10
48.850000
 20
57.450000
 40
0.000000
 41
0.000000
 42
0.000000
  0
VERTEX
  8
ET_TOP
 10
39.358800
 20
57.450000
 40
0.000000
 41
0.000000
 42
0.585061
  0
VERTEX
  8
ET_TOP
 10
30.641200
 20
57.450000
 40
0.000000
 41
0.000000
 42
0.000000
  0
SEQEND
  0
POLYLINE
  8
ET_TOP
 66
1
 70
1
 40
0.000000
 41
0.000000
 39
0.000000
  0
VERTEX
  8
ET_TOP
 10
47.800200
 20
66.399800
 40
0.000000
 41
0.000000
 42
0.000000
  0
VERTEX
  8
ET_TOP
 10
47.600200
 20
66.399800
 40
0.000000
 41
0.000000
 42
0.000000
  0
VERTEX
  8
ET_TOP
 10
47.600200
 20
66.199800
 40
0.000000
 41
0.000000
 42
0.000000
  0
VERTEX
  8
ET_TOP
 10
47.399400
 20
66.199800
 40
0.000000
 41
0.000000
 42
0.000000
  0
VERTEX
  8
ET_TOP
 10
47.399400
 20
66.399800
 40
0.000000
 41
0.000000
 42
0.000000
  0
VERTEX
  8
ET_TOP
 10
47.199400
 20
66.399800
 40
0.000000
 41
0.000000
 42
0.000000
  0
VERTEX
  8
ET_TOP
 10
47.199400
 20
66.600600
 40
0.000000
 41
0.000000
 42
0.000000
  0
VERTEX
  8
ET_TOP
 10
47.399400
 20
66.600600
 40
0.000000
 41
0.000000
 42
0.000000
  0
VERTEX
  8
ET_TOP
 10
47.399400
 20
66.800600
 40
0.000000
 41
0.000000
 42
0.000000
  0
VERTEX
  8
ET_TOP
 10
47.600200
 20
66.800600
 40
0.000000
 41
0.000000
 42
0.000000
  0
VERTEX
  8
ET_TOP
 10
47.600200
 20
66.600600
 40
0.000000
 41
0.000000
 42
0.000000
  0
VERTEX
  8
ET_TOP
 10
47.800200
 20
66.600600
 40
0.000000
 41
0.000000
 42
0.000000
  0
SEQEND
  0
POLYLINE
  8
ET_TOP
 66
1
 70
1
 40
0.000000
 41
0.000000
 39
0.000000
  0
VERTEX
  8
ET_TOP
 10
22.399800
 20
63.875200
 40
0.000000
 41
0.000000
 42
0.000000
  0
VERTEX
  8
ET_TOP
 10
22.600200
 20
63.875200
 40
0.000000
 41
0.000000
 42
0.000000
  0
VERTEX
  8
ET_TOP
 10
22.600200
 20
63.399800
 40
0.000000
 41
0.000000
 42
0.000000
  0
VERTEX
  8
ET_TOP
 10
22.124800
 20
63.399800
 40
0.000000
 41
0.000000
 42
0.000000
  0
VERTEX
  8
ET_TOP
 10
22.124800
 20
63.600200
 40
0.000000
 41
0.000000
 42
0.000000
  0
VERTEX
  8
ET_TOP
 10
22.399800
 20
63.600200
 40
0.000000
 41
0.000000
 42
0.000000
  0
SEQEND
  0
POLYLINE
  8
ET_TOP
 66
1
 70
1
 40
0.000000
 41
0.000000
 39
0.000000
  0
VERTEX
  8
ET_TOP
 10
23.600200
 20
65.000000
 40
0.000000
 41
0.000000
 42
1.000000
  0
VERTEX
  8
ET_TOP
 10
22.899800
 20
65.000000
 40
0.000000
 41
0.000000
 42
1.000000
  0
SEQEND
  0
POLYLINE
  8
ET_TOP
 66
1
 70
1
 40
0.000000
 41
0.000000
 39
0.000000
  0
VERTEX
  8
ET_TOP
 10
47.100200
 20
65.000000
 40
0.000000
 41
0.000000
 42
1.000000
  0
VERTEX
  8
ET_TOP
 10
46.399800
 20
65.000000
 40
0.000000
 41
0.000000
 42
1.000000
  0
SEQEND
  0
POLYLINE
  8
ET_TOP
 66
1
 70
1
 40
0.000000
 41
0.000000
 39
0.000000
  0
VERTEX
  8
ET_TOP
 10
5.120200
 20
57.450000
 40
0.000000
 41
0.000000
 42
0.000000
  0
VERTEX
  8
ET_TOP
 10
5.120200
 20
68.999900
 40
0.000000
 41
0.000000
 42
0.000000
  0
VERTEX
  8
ET_TOP
 10
20.850000
 20
68.999900
 40
0.000000
 41
0.000000
 42
0.000000
  0
VERTEX
  8
ET_TOP
 10
20.850000
 20
57.450000
 40
0.000000
 41
0.000000
 42
0.000000
  0
SEQEND
  0
POLYLINE
  8
ET_TOP
 66
1
 70
1
 40
0.000000
 41
0.000000
 39
0.000000
  0
VERTEX
  8
ET_TOP
 10
19.800200
 20
66.399800
 40
0.000000
 41
0.000000
 42
0.000000
  0
VERTEX
  8
ET_TOP
 10
19.600200
 20
66.399800
 40
0.000000
 41
0.000000
 42
0.000000
  0
VERTEX
  8
ET_TOP
 10
19.600200
 20
66.199800
 40
0.000000
 41
0.000000
 42
0.000000
  0
VERTEX
  8
ET_TOP
 10
19.399400
 20
66.199800
 40
0.000000
 41
0.000000
 42
0.000000
  0
VERTEX
  8
ET_TOP
 10
19.399400
 20
66.399800
 40
0.000000
 41
0.000000
 42
0.000000
  0
VERTEX
  8
ET_TOP
 10
19.199400
 20
66.399800
 40
0.000000
 41
0.000000
 42
0.000000
  0
VERTEX
  8
ET_TOP
 10
19.199400
 20
66.600600
 40
0.000000
 41
0.000000
 42
0.000000
  0
VERTEX
  8
ET_TOP
 10
19.399400
 20
66.600600
 40
0.000000
 41
0.000000
 42
0.000000
  0
VERTEX
  8
ET_TOP
 10
19.399400
 20
66.800600
 40
0.000000
 41
0.000000
 42
0.000000
  0
VERTEX
  8
ET_TOP
 10
19.600200
 20
66.800600
 40
0.000000
 41
0.000000
 42
0.000000
  0
VERTEX
  8
ET_TOP
 10
19.600200
 20
66.600600
 40
0.000000
 41
0.000000
 42
0.000000
  0
VERTEX
  8
ET_TOP
 10
19.800200
 20
66.600600
 40
0.000000
 41
0.000000
 42
0.000000
  0
SEQEND
  0
POLYLINE
  8
ET_TOP
 66
1
 70
1
 40
0.000000
 41
0.000000
 39
0.000000
  0
VERTEX
  8
ET_TOP
 10
6.399800
 20
63.875200
 40
0.000000
 41
0.000000
 42
0.000000
  0
VERTEX
  8
ET_TOP
 10
6.600200
 20
63.875200
 40
0.000000
 41
0.000000
 42
0.000000
  0
VERTEX
  8
ET_TOP
 10
6.600200
 20
63.399800
 40
0.000000
 41
0.000000
 42
0.000000
  0
VERTEX
  8
ET_TOP
 10
6.124800
 20
63.399800
 40
0.000000
 41
0.000000
 42
0.000000
  0
VERTEX
  8
ET_TOP
 10
6.124800
 20
63.600200
 40
0.000000
 41
0.000000
 42
0.000000
  0
VERTEX
  8
ET_TOP
 10
6.399800
 20
63.600200
 40
0.000000
 41
0.000000
 42
0.000000
  0
SEQEND
  0
POLYLINE
  8
ET_TOP
 66
1
 70
1
 40
0.000000
 41
0.000000
 39
0.000000
  0
VERTEX
  8
ET_TOP
 10
7.600200
 20
65.000000
 40
0.000000
 41
0.000000
 42
1.000000
  0
VERTEX
  8
ET_TOP
 10
6.899800
 20
65.000000
 40
0.000000
 41
0.000000
 42
1.000000
  0
SEQEND
  0
POLYLINE
  8
ET_TOP
 66
1
 70
1
 40
0.000000
 41
0.000000
 39
0.000000
  0
VERTEX
  8
ET_TOP
 10
19.100200
 20
65.000000
 40
0.000000
 41
0.000000
 42
1.000000
  0
VERTEX
  8
ET_TOP
 10
18.399800
 20
65.000000
 40
0.000000
 41
0.000000
 42
1.000000
  0
SEQEND
  0
POLYLINE
  8
ET_TOP
 66
1
 70
1
 40
0.000000
 41
0.000000
 39
0.000000
  0
VERTEX
  8
ET_TOP
 10
14.350200
 20
68.750200
 40
0.000000
 41
0.000000
 42
0.000000
  0
VERTEX
  8
ET_TOP
 10
14.350200
 20
65.549800
 40
0.000000
 41
0.000000
 42
0.000000
  0
VERTEX
  8
ET_TOP
 10
11.149800
 20
65.549800
 40
0.000000
 41
0.000000
 42
0.000000
  0
VERTEX
  8
ET_TOP
 10
11.149800
 20
68.750200
 40
0.000000
 41
0.000000
 42
0.000000
  0
SEQEND
  0
POLYLINE
  8
ET_TOP
 66
1
 70
1
 40
0.000000
 41
0.000000
 39
0.000000
  0
VERTEX
  8
ET_TOP
 10
1.000100
 20
15.600000
 40
0.000000
 41
0.000000
 42
0.000000
  0
VERTEX
  8
ET_TOP
 10
1.000100
 20
32.920000
 40
0.000000
 41
0.000000
 42
-0.455363
  0
VERTEX
  8
ET_TOP
 10
1.113900
 20
33.019000
 40
0.000000
 41
0.000000
 42
1.149442
  0
VERTEX
  8
ET_TOP
 10
1.113900
 20
36.981000
 40
0.000000
 41
0.000000
 42
-0.455363
  0
VERTEX
  8
ET_TOP
 10
1.000100
 20
37.080000
 40
0.000000
 41
0.000000
 42
0.000000
  0
VERTEX
  8
ET_TOP
 10
1.000100
 20
45.200000
 40
0.000000
 41
0.000000
 42
0.000000
  0
VERTEX
  8
ET_TOP
 10
21.150000
 20
45.200000
 40
0.000000
 41
0.000000
 42
0.000000
  0
VERTEX
  8
ET_TOP
 10
21.150000
 20
56.600000
 40
0.000000
 41
0.000000
 42
0.000000
  0
VERTEX
  8
ET_TOP
 10
30.125400
 20
56.600000
 40
0.000000
 41
0.000000
 42
-0.504480
  0
VERTEX
  8
ET_TOP
 10
30.220900
 20
56.470600
 40
0.000000
 41
0.000000
 42
1.353988
  0
VERTEX
  8
ET_TOP
 10
39.779100
 20
56.470600
 40
0.000000
 41
0.000000
 42
-0.504480
  0
VERTEX
  8
ET_TOP
 10
39.874600
 20
56.600000
 40
0.000000
 41
0.000000
 42
0.000000
  0
VERTEX
  8
ET_TOP
 10
42.900000
 20
56.600000
 40
0.000000
 41
0.000000
 42
0.000000
  0
VERTEX
  8
ET_TOP
 10
42.900000
 20
37.186100
 40
0.000000
 41
0.000000
 42
0.084803
  0
VERTEX
  8
ET_TOP
 10
42.364200
 20
35.950000
 40
0.000000
 41
0.000000
 42
0.000000
  0
VERTEX
  8
ET_TOP
 10
19.909100
 20
35.950000
 40
0.000000
 41
0.000000
 42
0.825034
  0
VERTEX
  8
ET_TOP
 10
10.090900
 20
35.950000
 40
0.000000
 41
0.000000
 42
0.000000
  0
VERTEX
  8
ET_TOP
 10
4.850000
 20
35.950000
 40
0.000000
 41
0.000000
 42
0.000000
  0
VERTEX
  8
ET_TOP
 10
4.850000
 20
15.600000
 40
0.000000
 41
0.000000
 42
0.000000
  0
SEQEND
  0
POLYLINE
  8
ET_TOP
 66
1
 70
1
 40
0.000000
 41
0.000000
 39
0.000000
  0
VERTEX
  8
ET_TOP
 10
22.199800
 20
47.600200
 40
0.000000
 41
0.000000
 42
0.000000
  0
VERTEX
  8
ET_TOP
 10
22.399800
 20
47.600200
 40
0.000000
 41
0.000000
 42
0.000000
  0
VERTEX
  8
ET_TOP
 10
22.399800
 20
47.800200
 40
0.000000
 41
0.000000
 42
0.000000
  0
VERTEX
  8
ET_TOP
 10
22.600600
 20
47.800200
 40
0.000000
 41
0.000000
 42
0.000000
  0
VERTEX
  8
ET_TOP
 10
22.600600
 20
47.600200
 40
0.000000
 41
0.000000
 42
0.000000
  0
VERTEX
  8
ET_TOP
 10
22.800600
 20
47.600200
 40
0.000000
 41
0.000000
 42
0.000000
  0
VERTEX
  8
ET_TOP
 10
22.800600
 20
47.399400
 40
0.000000
 41
0.000000
 42
0.000000
  0
VERTEX
  8
ET_TOP
 10
22.600600
 20
47.399400
 40
0.000000
 41
0.000000
 42
0.000000
  0
VERTEX
  8
ET_TOP
 10
22.600600
 20
47.199400
 40
0.000000
 41
0.000000
 42
0.000000
  0
VERTEX
  8
ET_TOP
 10
22.399800
 20
47.199400
 40
0.000000
 41
0.000000
 42
0.000000
  0
VERTEX
  8
ET_TOP
 10
22.399800
 20
47.399400
 40
0.000000
 41
0.000000
 42
0.000000
  0
VERTEX
  8
ET_TOP
 10
22.199800
 20
47.399400
 40
0.000000
 41
0.000000
 42
0.000000
  0
SEQEND
  0
POLYLINE
  8
ET_TOP
 66
1
 70
1
 40
0.000000
 41
0.000000
 39
0.000000
  0
VERTEX
  8
ET_TOP
 10
3.800200
 20
22.399800
 40
0.000000
 41
0.000000
 42
0.000000
  0
VERTEX
  8
ET_TOP
 10
3.600200
 20
22.399800
 40
0.000000
 41
0.000000
 42
0.000000
  0
VERTEX
  8
ET_TOP
 10
3.600200
 20
22.199800
 40
0.000000
 41
0.000000
 42
0.000000
  0
VERTEX
  8
ET_TOP
 10
3.399400
 20
22.199800
 40
0.000000
 41
0.000000
 42
0.000000
  0
VERTEX
  8
ET_TOP
 10
3.399400
 20
22.399800
 40
0.000000
 41
0.000000
 42
0.000000
  0
VERTEX
  8
ET_TOP
 10
3.199400
 20
22.399800
 40
0.000000
 41
0.000000
 42
0.000000
  0
VERTEX
  8
ET_TOP
 10
3.199400
 20
22.600600
 40
0.000000
 41
0.000000
 42
0.000000
  0
VERTEX
  8
ET_TOP
 10
3.399400
 20
22.600600
 40
0.000000
 41
0.000000
 42
0.000000
  0
VERTEX
  8
ET_TOP
 10
3.399400
 20
22.800600
 40
0.000000
 41
0.000000
 42
0.000000
  0
VERTEX
  8
ET_TOP
 10
3.600200
 20
22.800600
 40
0.000000
 41
0.000000
 42
0.000000
  0
VERTEX
  8
ET_TOP
 10
3.600200
 20
22.600600
 40
0.000000
 41
0.000000
 42
0.000000
  0
VERTEX
  8
ET_TOP
 10
3.800200
 20
22.600600
 40
0.000000
 41
0.000000
 42
0.000000
  0
SEQEND
  0
POLYLINE
  8
ET_TOP
 66
1
 70
1
 40
0.000000
 41
0.000000
 39
0.000000
  0
VERTEX
  8
ET_TOP
 10
3.100200
 20
21.000000
 40
0.000000
 41
0.000000
 42
1.000000
  0
VERTEX
  8
ET_TOP
 10
2.399800
 20
21.000000
 40
0.000000
 41
0.000000
 42
1.000000
  0
SEQEND
  0
POLYLINE
  8
ET_TOP
 66
1
 70
1
 40
0.000000
 41
0.000000
 39
0.000000
  0
VERTEX
  8
ET_TOP
 10
23.600200
 20
49.000000
 40
0.000000
 41
0.000000
 42
1.000000
  0
VERTEX
  8
ET_TOP
 10
22.899800
 20
49.000000
 40
0.000000
 41
0.000000
 42
1.000000
  0
SEQEND
  0
POLYLINE
  8
ET_TOP
 66
1
 70
1
 40
0.000000
 41
0.000000
 39
0.000000
  0
VERTEX
  8
ET_TOP
 10
35.250400
 20
39.850000
 40
0.000000
 41
0.000000
 42
1.000000
  0
VERTEX
  8
ET_TOP
 10
34.549600
 20
39.850000
 40
0.000000
 41
0.000000
 42
1.000000
  0
SEQEND
  0
POLYLINE
  8
ET_TOP
 66
1
 70
1
 40
0.000000
 41
0.000000
 39
0.000000
  0
VERTEX
  8
ET_TOP
 10
4.850000
 20
45.900000
 40
0.000000
 41
0.000000
 42
0.000000
  0
VERTEX
  8
ET_TOP
 10
1.000100
 20
45.900000
 40
0.000000
 41
0.000000
 42
0.000000
  0
VERTEX
  8
ET_TOP
 10
1.000100
 20
68.999900
 40
0.000000
 41
0.000000
 42
0.000000
  0
VERTEX
  8
ET_TOP
 10
4.850000
 20
68.999900
 40
0.000000
 41
0.000000
 42
0.000000
  0
SEQEND
  0
POLYLINE
  8
ET_TOP
 66
1
 70
1
 40
0.000000
 41
0.000000
 39
0.000000
  0
VERTEX
  8
ET_TOP
 10
3.800200
 20
66.399800
 40
0.000000
 41
0.000000
 42
0.000000
  0
VERTEX
  8
ET_TOP
 10
3.600200
 20
66.399800
 40
0.000000
 41
0.000000
 42
0.000000
  0
VERTEX
  8
ET_TOP
 10
3.600200
 20
66.199800
 40
0.000000
 41
0.000000
 42
0.000000
  0
VERTEX
  8
ET_TOP
 10
3.399400
 20
66.199800
 40
0.000000
 41
0.000000
 42
0.000000
  0
VERTEX
  8
ET_TOP
 10
3.399400
 20
66.399800
 40
0.000000
 41
0.000000
 42
0.000000
  0
VERTEX
  8
ET_TOP
 10
3.199400
 20
66.399800
 40
0.000000
 41
0.000000
 42
0.000000
  0
VERTEX
  8
ET_TOP
 10
3.199400
 20
66.600600
 40
0.000000
 41
0.000000
 42
0.000000
  0
VERTEX
  8
ET_TOP
 10
3.399400
 20
66.600600
 40
0.000000
 41
0.000000
 42
0.000000
  0
VERTEX
  8
ET_TOP
 10
3.399400
 20
66.800600
 40
0.000000
 41
0.000000
 42
0.000000
  0
VERTEX
  8
ET_TOP
 10
3.600200
 20
66.800600
 40
0.000000
 41
0.000000
 42
0.000000
  0
VERTEX
  8
ET_TOP
 10
3.600200
 20
66.600600
 40
0.000000
 41
0.000000
 42
0.000000
  0
VERTEX
  8
ET_TOP
 10
3.800200
 20
66.600600
 40
0.000000
 41
0.000000
 42
0.000000
  0
SEQEND
  0
POLYLINE
  8
ET_TOP
 66
1
 70
1
 40
0.000000
 41
0.000000
 39
0.000000
  0
VERTEX
  8
ET_TOP
 10
3.600200
 20
50.124800
 40
0.000000
 41
0.000000
 42
0.000000
  0
VERTEX
  8
ET_TOP
 10
3.399800
 20
50.124800
 40
0.000000
 41
0.000000
 42
0.000000
  0
VERTEX
  8
ET_TOP
 10
3.399800
 20
50.600200
 40
0.000000
 41
0.000000
 42
0.000000
  0
VERTEX
  8
ET_TOP
 10
3.875200
 20
50.600200
 40
0.000000
 41
0.000000
 42
0.000000
  0
VERTEX
  8
ET_TOP
 10
3.875200
 20
50.399800
 40
0.000000
 41
0.000000
 42
0.000000
  0
VERTEX
  8
ET_TOP
 10
3.600200
 20
50.399800
 40
0.000000
 41
0.000000
 42
0.000000
  0
SEQEND
  0
POLYLINE
  8
ET_TOP
 66
1
 70
1
 40
0.000000
 41
0.000000
 39
0.000000
  0
VERTEX
  8
ET_TOP
 10
3.100200
 20
49.000000
 40
0.000000
 41
0.000000
 42
1.000000
  0
VERTEX
  8
ET_TOP
 10
2.399800
 20
49.000000
 40
0.000000
 41
0.000000
 42
1.000000
  0
SEQEND
  0
POLYLINE
  8
ET_TOP
 66
1
 70
1
 40
0.000000
 41
0.000000
 39
0.000000
  0
VERTEX
  8
ET_TOP
 10
3.100200
 20
65.000000
 40
0.000000
 41
0.000000
 42
1.000000
  0
VERTEX
  8
ET_TOP
 10
2.399800
 20
65.000000
 40
0.000000
 41
0.000000
 42
1.000000
  0
SEQEND
  0
POLYLINE
  8
ET_TOP
 66
1
 70
1
 40
0.000000
 41
0.000000
 39
0.000000
  0
VERTEX
  8
ET_TOP
 10
20.850000
 20
56.600000
 40
0.000000
 41
0.000000
 42
0.000000
  0
VERTEX
  8
ET_TOP
 10
20.850000
 20
45.900000
 40
0.000000
 41
0.000000
 42
0.000000
  0
VERTEX
  8
ET_TOP
 10
5.150000
 20
45.900000
 40
0.000000
 41
0.000000
 42
0.000000
  0
VERTEX
  8
ET_TOP
 10
5.150000
 20
56.600000
 40
0.000000
 41
0.000000
 42
0.000000
  0
SEQEND
  0
POLYLINE
  8
ET_TOP
 66
1
 70
1
 40
0.000000
 41
0.000000
 39
0.000000
  0
VERTEX
  8
ET_TOP
 10
19.600200
 20
50.124800
 40
0.000000
 41
0.000000
 42
0.000000
  0
VERTEX
  8
ET_TOP
 10
19.399800
 20
50.124800
 40
0.000000
 41
0.000000
 42
0.000000
  0
VERTEX
  8
ET_TOP
 10
19.399800
 20
50.600200
 40
0.000000
 41
0.000000
 42
0.000000
  0
VERTEX
  8
ET_TOP
 10
19.875200
 20
50.600200
 40
0.000000
 41
0.000000
 42
0.000000
  0
VERTEX
  8
ET_TOP
 10
19.875200
 20
50.399800
 40
0.000000
 41
0.000000
 42
0.000000
  0
VERTEX
  8
ET_TOP
 10
19.600200
 20
50.399800
 40
0.000000
 41
0.000000
 42
0.000000
  0
SEQEND
  0
POLYLINE
  8
ET_TOP
 66
1
 70
1
 40
0.000000
 41
0.000000
 39
0.000000
  0
VERTEX
  8
ET_TOP
 10
6.199800
 20
47.600200
 40
0.000000
 41
0.000000
 42
0.000000
  0
VERTEX
  8
ET_TOP
 10
6.399800
 20
47.600200
 40
0.000000
 41
0.000000
 42
0.000000
  0
VERTEX
  8
ET_TOP
 10
6.399800
 20
47.800200
 40
0.000000
 41
0.000000
 42
0.000000
  0
VERTEX
  8
ET_TOP
 10
6.600600
 20
47.800200
 40
0.000000
 41
0.000000
 42
0.000000
  0
VERTEX
  8
ET_TOP
 10
6.600600
 20
47.600200
 40
0.000000
 41
0.000000
 42
0.000000
  0
VERTEX
  8
ET_TOP
 10
6.800600
 20
47.600200
 40
0.000000
 41
0.000000
 42
0.000000
  0
VERTEX
  8
ET_TOP
 10
6.800600
 20
47.399400
 40
0.000000
 41
0.000000
 42
0.000000
  0
VERTEX
  8
ET_TOP
 10
6.600600
 20
47.399400
 40
0.000000
 41
0.000000
 42
0.000000
  0
VERTEX
  8
ET_TOP
 10
6.600600
 20
47.199400
 40
0.000000
 41
0.000000
 42
0.000000
  0
VERTEX
  8
ET_TOP
 10
6.399800
 20
47.199400
 40
0.000000
 41
0.000000
 42
0.000000
  0
VERTEX
  8
ET_TOP
 10
6.399800
 20
47.399400
 40
0.000000
 41
0.000000
 42
0.000000
  0
VERTEX
  8
ET_TOP
 10
6.199800
 20
47.399400
 40
0.000000
 41
0.000000
 42
0.000000
  0
SEQEND
  0
POLYLINE
  8
ET_TOP
 66
1
 70
1
 40
0.000000
 41
0.000000
 39
0.000000
  0
VERTEX
  8
ET_TOP
 10
7.600200
 20
49.000000
 40
0.000000
 41
0.000000
 42
1.000000
  0
VERTEX
  8
ET_TOP
 10
6.899800
 20
49.000000
 40
0.000000
 41
0.000000
 42
1.000000
  0
SEQEND
  0
POLYLINE
  8
ET_TOP
 66
1
 70
1
 40
0.000000
 41
0.000000
 39
0.000000
  0
VERTEX
  8
ET_TOP
 10
19.100200
 20
49.000000
 40
0.000000
 41
0.000000
 42
1.000000
  0
VERTEX
  8
ET_TOP
 10
18.399800
 20
49.000000
 40
0.000000
 41
0.000000
 42
1.000000
  0
SEQEND
  0
POLYLINE
  8
ET_TOP
 66
1
 70
1
 40
0.000000
 41
0.000000
 39
0.000000
  0
VERTEX
  8
ET_TOP
 10
20.850000
 20
24.100000
 40
0.000000
 41
0.000000
 42
0.000000
  0
VERTEX
  8
ET_TOP
 10
20.850000
 20
15.600000
 40
0.000000
 41
0.000000
 42
0.000000
  0
VERTEX
  8
ET_TOP
 10
5.150000
 20
15.600000
 40
0.000000
 41
0.000000
 42
0.000000
  0
VERTEX
  8
ET_TOP
 10
5.150000
 20
24.100000
 40
0.000000
 41
0.000000
 42
0.000000
  0
SEQEND
  0
POLYLINE
  8
ET_TOP
 66
1
 70
1
 40
0.000000
 41
0.000000
 39
0.000000
  0
VERTEX
  8
ET_TOP
 10
19.800200
 20
22.399800
 40
0.000000
 41
0.000000
 42
0.000000
  0
VERTEX
  8
ET_TOP
 10
19.600200
 20
22.399800
 40
0.000000
 41
0.000000
 42
0.000000
  0
VERTEX
  8
ET_TOP
 10
19.600200
 20
22.199800
 40
0.000000
 41
0.000000
 42
0.000000
  0
VERTEX
  8
ET_TOP
 10
19.399400
 20
22.199800
 40
0.000000
 41
0.000000
 42
0.000000
  0
VERTEX
  8
ET_TOP
 10
19.399400
 20
22.399800
 40
0.000000
 41
0.000000
 42
0.000000
  0
VERTEX
  8
ET_TOP
 10
19.199400
 20
22.399800
 40
0.000000
 41
0.000000
 42
0.000000
  0
VERTEX
  8
ET_TOP
 10
19.199400
 20
22.600600
 40
0.000000
 41
0.000000
 42
0.000000
  0
VERTEX
  8
ET_TOP
 10
19.399400
 20
22.600600
 40
0.000000
 41
0.000000
 42
0.000000
  0
VERTEX
  8
ET_TOP
 10
19.399400
 20
22.800600
 40
0.000000
 41
0.000000
 42
0.000000
  0
VERTEX
  8
ET_TOP
 10
19.600200
 20
22.800600
 40
0.000000
 41
0.000000
 42
0.000000
  0
VERTEX
  8
ET_TOP
 10
19.600200
 20
22.600600
 40
0.000000
 41
0.000000
 42
0.000000
  0
VERTEX
  8
ET_TOP
 10
19.800200
 20
22.600600
 40
0.000000
 41
0.000000
 42
0.000000
  0
SEQEND
  0
POLYLINE
  8
ET_TOP
 66
1
 70
1
 40
0.000000
 41
0.000000
 39
0.000000
  0
VERTEX
  8
ET_TOP
 10
6.399800
 20
19.875200
 40
0.000000
 41
0.000000
 42
0.000000
  0
VERTEX
  8
ET_TOP
 10
6.600200
 20
19.875200
 40
0.000000
 41
0.000000
 42
0.000000
  0
VERTEX
  8
ET_TOP
 10
6.600200
 20
19.399800
 40
0.000000
 41
0.000000
 42
0.000000
  0
VERTEX
  8
ET_TOP
 10
6.124800
 20
19.399800
 40
0.000000
 41
0.000000
 42
0.000000
  0
VERTEX
  8
ET_TOP
 10
6.124800
 20
19.600200
 40
0.000000
 41
0.000000
 42
0.000000
  0
VERTEX
  8
ET_TOP
 10
6.399800
 20
19.600200
 40
0.000000
 41
0.000000
 42
0.000000
  0
SEQEND
  0
POLYLINE
  8
ET_TOP
 66
1
 70
1
 40
0.000000
 41
0.000000
 39
0.000000
  0
VERTEX
  8
ET_TOP
 10
7.600200
 20
21.000000
 40
0.000000
 41
0.000000
 42
1.000000
  0
VERTEX
  8
ET_TOP
 10
6.899800
 20
21.000000
 40
0.000000
 41
0.000000
 42
1.000000
  0
SEQEND
  0
POLYLINE
  8
ET_TOP
 66
1
 70
1
 40
0.000000
 41
0.000000
 39
0.000000
  0
VERTEX
  8
ET_TOP
 10
19.100200
 20
21.000000
 40
0.000000
 41
0.000000
 42
1.000000
  0
VERTEX
  8
ET_TOP
 10
18.399800
 20
21.000000
 40
0.000000
 41
0.000000
 42
1.000000
  0
SEQEND
  0
POLYLINE
  8
ET_TOP
 66
1
 70
1
 40
0.000000
 41
0.000000
 39
0.000000
  0
VERTEX
  8
ET_TOP
 10
64.850000
 20
56.600000
 40
0.000000
 41
0.000000
 42
0.000000
  0
VERTEX
  8
ET_TOP
 10
64.850000
 20
44.000000
 40
0.000000
 41
0.000000
 42
0.000000
  0
VERTEX
  8
ET_TOP
 10
49.150000
 20
44.000000
 40
0.000000
 41
0.000000
 42
0.000000
  0
VERTEX
  8
ET_TOP
 10
49.150000
 20
56.600000
 40
0.000000
 41
0.000000
 42
0.000000
  0
SEQEND
  0
POLYLINE
  8
ET_TOP
 66
1
 70
1
 40
0.000000
 41
0.000000
 39
0.000000
  0
VERTEX
  8
ET_TOP
 10
63.600200
 20
50.124800
 40
0.000000
 41
0.000000
 42
0.000000
  0
VERTEX
  8
ET_TOP
 10
63.399800
 20
50.124800
 40
0.000000
 41
0.000000
 42
0.000000
  0
VERTEX
  8
ET_TOP
 10
63.399800
 20
50.600200
 40
0.000000
 41
0.000000
 42
0.000000
  0
VERTEX
  8
ET_TOP
 10
63.875200
 20
50.600200
 40
0.000000
 41
0.000000
 42
0.000000
  0
VERTEX
  8
ET_TOP
 10
63.875200
 20
50.399800
 40
0.000000
 41
0.000000
 42
0.000000
  0
VERTEX
  8
ET_TOP
 10
63.600200
 20
50.399800
 40
0.000000
 41
0.000000
 42
0.000000
  0
SEQEND
  0
POLYLINE
  8
ET_TOP
 66
1
 70
1
 40
0.000000
 41
0.000000
 39
0.000000
  0
VERTEX
  8
ET_TOP
 10
50.199800
 20
47.600200
 40
0.000000
 41
0.000000
 42
0.000000
  0
VERTEX
  8
ET_TOP
 10
50.399800
 20
47.600200
 40
0.000000
 41
0.000000
 42
0.000000
  0
VERTEX
  8
ET_TOP
 10
50.399800
 20
47.800200
 40
0.000000
 41
0.000000
 42
0.000000
  0
VERTEX
  8
ET_TOP
 10
50.600600
 20
47.800200
 40
0.000000
 41
0.000000
 42
0.000000
  0
VERTEX
  8
ET_TOP
 10
50.600600
 20
47.600200
 40
0.000000
 41
0.000000
 42
0.000000
  0
VERTEX
  8
ET_TOP
 10
50.800600
 20
47.600200
 40
0.000000
 41
0.000000
 42
0.000000
  0
VERTEX
  8
ET_TOP
 10
50.800600
 20
47.399400
 40
0.000000
 41
0.000000
 42
0.000000
  0
VERTEX
  8
ET_TOP
 10
50.600600
 20
47.399400
 40
0.000000
 41
0.000000
 42
0.000000
  0
VERTEX
  8
ET_TOP
 10
50.600600
 20
47.199400
 40
0.000000
 41
0.000000
 42
0.000000
  0
VERTEX
  8
ET_TOP
 10
50.399800
 20
47.199400
 40
0.000000
 41
0.000000
 42
0.000000
  0
VERTEX
  8
ET_TOP
 10
50.399800
 20
47.399400
 40
0.000000
 41
0.000000
 42
0.000000
  0
VERTEX
  8
ET_TOP
 10
50.199800
 20
47.399400
 40
0.000000
 41
0.000000
 42
0.000000
  0
SEQEND
  0
POLYLINE
  8
ET_TOP
 66
1
 70
1
 40
0.000000
 41
0.000000
 39
0.000000
  0
VERTEX
  8
ET_TOP
 10
51.600200
 20
49.000000
 40
0.000000
 41
0.000000
 42
1.000000
  0
VERTEX
  8
ET_TOP
 10
50.899800
 20
49.000000
 40
0.000000
 41
0.000000
 42
1.000000
  0
SEQEND
  0
POLYLINE
  8
ET_TOP
 66
1
 70
1
 40
0.000000
 41
0.000000
 39
0.000000
  0
VERTEX
  8
ET_TOP
 10
63.100200
 20
49.000000
 40
0.000000
 41
0.000000
 42
1.000000
  0
VERTEX
  8
ET_TOP
 10
62.399800
 20
49.000000
 40
0.000000
 41
0.000000
 42
1.000000
  0
SEQEND
  0
POLYLINE
  8
ET_TOP
 66
1
 70
1
 40
0.000000
 41
0.000000
 39
0.000000
  0
VERTEX
  8
ET_TOP
 10
21.150000
 20
1.000100
 40
0.000000
 41
0.000000
 42
0.000000
  0
VERTEX
  8
ET_TOP
 10
21.150000
 20
10.150000
 40
0.000000
 41
0.000000
 42
0.000000
  0
VERTEX
  8
ET_TOP
 10
33.783700
 20
10.150000
 40
0.000000
 41
0.000000
 42
0.123480
  0
VERTEX
  8
ET_TOP
 10
36.216300
 20
10.150000
 40
0.000000
 41
0.000000
 42
0.000000
  0
VERTEX
  8
ET_TOP
 10
48.850000
 20
10.150000
 40
0.000000
 41
0.000000
 42
0.000000
  0
VERTEX
  8
ET_TOP
 10
48.850000
 20
1.000100
 40
0.000000
 41
0.000000
 42
0.000000
  0
VERTEX
  8
ET_TOP
 10
37.061800
 20
1.000100
 40
0.000000
 41
0.000000
 42
-0.471474
  0
VERTEX
  8
ET_TOP
 10
36.963600
 20
1.119100
 40
0.000000
 41
0.000000
 42
1.212621
  0
VERTEX
  8
ET_TOP
 10
33.036400
 20
1.119100
 40
0.000000
 41
0.000000
 42
-0.471474
  0
VERTEX
  8
ET_TOP
 10
32.938200
 20
1.000100
 40
0.000000
 41
0.000000
 42
0.000000
  0
SEQEND
  0
POLYLINE
  8
ET_TOP
 66
1
 70
1
 40
0.000000
 41
0.000000
 39
0.000000
  0
VERTEX
  8
ET_TOP
 10
47.800200
 20
6.399800
 40
0.000000
 41
0.000000
 42
0.000000
  0
VERTEX
  8
ET_TOP
 10
47.600200
 20
6.399800
 40
0.000000
 41
0.000000
 42
0.000000
  0
VERTEX
  8
ET_TOP
 10
47.600200
 20
6.199800
 40
0.000000
 41
0.000000
 42
0.000000
  0
VERTEX
  8
ET_TOP
 10
47.399400
 20
6.199800
 40
0.000000
 41
0.000000
 42
0.000000
  0
VERTEX
  8
ET_TOP
 10
47.399400
 20
6.399800
 40
0.000000
 41
0.000000
 42
0.000000
  0
VERTEX
  8
ET_TOP
 10
47.199400
 20
6.399800
 40
0.000000
 41
0.000000
 42
0.000000
  0
VERTEX
  8
ET_TOP
 10
47.199400
 20
6.600600
 40
0.000000
 41
0.000000
 42
0.000000
  0
VERTEX
  8
ET_TOP
 10
47.399400
 20
6.600600
 40
0.000000
 41
0.000000
 42
0.000000
  0
VERTEX
  8
ET_TOP
 10
47.399400
 20
6.800600
 40
0.000000
 41
0.000000
 42
0.000000
  0
VERTEX
  8
ET_TOP
 10
47.600200
 20
6.800600
 40
0.000000
 41
0.000000
 42
0.000000
  0
VERTEX
  8
ET_TOP
 10
47.600200
 20
6.600600
 40
0.000000
 41
0.000000
 42
0.000000
  0
VERTEX
  8
ET_TOP
 10
47.800200
 20
6.600600
 40
0.000000
 41
0.000000
 42
0.000000
  0
SEQEND
  0
POLYLINE
  8
ET_TOP
 66
1
 70
1
 40
0.000000
 41
0.000000
 39
0.000000
  0
VERTEX
  8
ET_TOP
 10
22.399800
 20
3.875200
 40
0.000000
 41
0.000000
 42
0.000000
  0
VERTEX
  8
ET_TOP
 10
22.600200
 20
3.875200
 40
0.000000
 41
0.000000
 42
0.000000
  0
VERTEX
  8
ET_TOP
 10
22.600200
 20
3.399800
 40
0.000000
 41
0.000000
 42
0.000000
  0
VERTEX
  8
ET_TOP
 10
22.124800
 20
3.399800
 40
0.000000
 41
0.000000
 42
0.000000
  0
VERTEX
  8
ET_TOP
 10
22.124800
 20
3.600200
 40
0.000000
 41
0.000000
 42
0.000000
  0
VERTEX
  8
ET_TOP
 10
22.399800
 20
3.600200
 40
0.000000
 41
0.000000
 42
0.000000
  0
SEQEND
  0
POLYLINE
  8
ET_TOP
 66
1
 70
1
 40
0.000000
 41
0.000000
 39
0.000000
  0
VERTEX
  8
ET_TOP
 10
23.600200
 20
5.000000
 40
0.000000
 41
0.000000
 42
1.000000
  0
VERTEX
  8
ET_TOP
 10
22.899800
 20
5.000000
 40
0.000000
 41
0.000000
 42
1.000000
  0
SEQEND
  0
POLYLINE
  8
ET_TOP
 66
1
 70
1
 40
0.000000
 41
0.000000
 39
0.000000
  0
VERTEX
  8
ET_TOP
 10
47.100200
 20
5.000000
 40
0.000000
 41
0.000000
 42
1.000000
  0
VERTEX
  8
ET_TOP
 10
46.399800
 20
5.000000
 40
0.000000
 41
0.000000
 42
1.000000
  0
SEQEND
  0
POLYLINE
  8
ET_TOP
 66
1
 70
1
 40
0.000000
 41
0.000000
 39
0.000000
  0
VERTEX
  8
ET_TOP
 10
20.850000
 20
1.000100
 40
0.000000
 41
0.000000
 42
0.000000
  0
VERTEX
  8
ET_TOP
 10
5.150000
 20
1.000100
 40
0.000000
 41
0.000000
 42
0.000000
  0
VERTEX
  8
ET_TOP
 10
5.150000
 20
10.150000
 40
0.000000
 41
0.000000
 42
0.000000
  0
VERTEX
  8
ET_TOP
 10
20.850000
 20
10.150000
 40
0.000000
 41
0.000000
 42
0.000000
  0
SEQEND
  0
POLYLINE
  8
ET_TOP
 66
1
 70
1
 40
0.000000
 41
0.000000
 39
0.000000
  0
VERTEX
  8
ET_TOP
 10
19.800200
 20
6.399800
 40
0.000000
 41
0.000000
 42
0.000000
  0
VERTEX
  8
ET_TOP
 10
19.600200
 20
6.399800
 40
0.000000
 41
0.000000
 42
0.000000
  0
VERTEX
  8
ET_TOP
 10
19.600200
 20
6.199800
 40
0.000000
 41
0.000000
 42
0.000000
  0
VERTEX
  8
ET_TOP
 10
19.399400
 20
6.199800
 40
0.000000
 41
0.000000
 42
0.000000
  0
VERTEX
  8
ET_TOP
 10
19.399400
 20
6.399800
 40
0.000000
 41
0.000000
 42
0.000000
  0
VERTEX
  8
ET_TOP
 10
19.199400
 20
6.399800
 40
0.000000
 41
0.000000
 42
0.000000
  0
VERTEX
  8
ET_TOP
 10
19.199400
 20
6.600600
 40
0.000000
 41
0.000000
 42
0.000000
  0
VERTEX
  8
ET_TOP
 10
19.399400
 20
6.600600
 40
0.000000
 41
0.000000
 42
0.000000
  0
VERTEX
  8
ET_TOP
 10
19.399400
 20
6.800600
 40
0.000000
 41
0.000000
 42
0.000000
  0
VERTEX
  8
ET_TOP
 10
19.600200
 20
6.800600
 40
0.000000
 41
0.000000
 42
0.000000
  0
VERTEX
  8
ET_TOP
 10
19.600200
 20
6.600600
 40
0.000000
 41
0.000000
 42
0.000000
  0
VERTEX
  8
ET_TOP
 10
19.800200
 20
6.600600
 40
0.000000
 41
0.000000
 42
0.000000
  0
SEQEND
  0
POLYLINE
  8
ET_TOP
 66
1
 70
1
 40
0.000000
 41
0.000000
 39
0.000000
  0
VERTEX
  8
ET_TOP
 10
6.399800
 20
3.875200
 40
0.000000
 41
0.000000
 42
0.000000
  0
VERTEX
  8
ET_TOP
 10
6.600200
 20
3.875200
 40
0.000000
 41
0.000000
 42
0.000000
  0
VERTEX
  8
ET_TOP
 10
6.600200
 20
3.399800
 40
0.000000
 41
0.000000
 42
0.000000
  0
VERTEX
  8
ET_TOP
 10
6.124800
 20
3.399800
 40
0.000000
 41
0.000000
 42
0.000000
  0
VERTEX
  8
ET_TOP
 10
6.124800
 20
3.600200
 40
0.000000
 41
0.000000
 42
0.000000
  0
VERTEX
  8
ET_TOP
 10
6.399800
 20
3.600200
 40
0.000000
 41
0.000000
 42
0.000000
  0
SEQEND
  0
POLYLINE
  8
ET_TOP
 66
1
 70
1
 40
0.000000
 41
0.000000
 39
0.000000
  0
VERTEX
  8
ET_TOP
 10
7.600200
 20
5.000000
 40
0.000000
 41
0.000000
 42
1.000000
  0
VERTEX
  8
ET_TOP
 10
6.899800
 20
5.000000
 40
0.000000
 41
0.000000
 42
1.000000
  0
SEQEND
  0
POLYLINE
  8
ET_TOP
 66
1
 70
1
 40
0.000000
 41
0.000000
 39
0.000000
  0
VERTEX
  8
ET_TOP
 10
19.100200
 20
5.000000
 40
0.000000
 41
0.000000
 42
1.000000
  0
VERTEX
  8
ET_TOP
 10
18.399800
 20
5.000000
 40
0.000000
 41
0.000000
 42
1.000000
  0
SEQEND
  0
POLYLINE
  8
ET_TOP
 66
1
 70
1
 40
0.000000
 41
0.000000
 39
0.000000
  0
VERTEX
  8
ET_TOP
 10
1.000100
 20
1.000100
 40
0.000000
 41
0.000000
 42
0.000000
  0
VERTEX
  8
ET_TOP
 10
1.000100
 20
14.650000
 40
0.000000
 41
0.000000
 42
0.000000
  0
VERTEX
  8
ET_TOP
 10
21.150000
 20
14.650000
 40
0.000000
 41
0.000000
 42
0.000000
  0
VERTEX
  8
ET_TOP
 10
21.150000
 20
24.100000
 40
0.000000
 41
0.000000
 42
0.000000
  0
VERTEX
  8
ET_TOP
 10
30.000000
 20
24.100000
 40
0.000000
 41
0.000000
 42
0.000000
  0
VERTEX
  8
ET_TOP
 10
30.000000
 20
15.044500
 40
0.000000
 41
0.000000
 42
0.004450
  0
VERTEX
  8
ET_TOP
 10
30.000000
 20
14.955500
 40
0.000000
 41
0.000000
 42
0.000000
  0
VERTEX
  8
ET_TOP
 10
30.000000
 20
10.900000
 40
0.000000
 41
0.000000
 42
0.000000
  0
VERTEX
  8
ET_TOP
 10
4.850000
 20
10.900000
 40
0.000000
 41
0.000000
 42
0.000000
  0
VERTEX
  8
ET_TOP
 10
4.850000
 20
1.000100
 40
0.000000
 41
0.000000
 42
0.000000
  0
SEQEND
  0
POLYLINE
  8
ET_TOP
 66
1
 70
1
 40
0.000000
 41
0.000000
 39
0.000000
  0
VERTEX
  8
ET_TOP
 10
22.399800
 20
19.875200
 40
0.000000
 41
0.000000
 42
0.000000
  0
VERTEX
  8
ET_TOP
 10
22.600200
 20
19.875200
 40
0.000000
 41
0.000000
 42
0.000000
  0
VERTEX
  8
ET_TOP
 10
22.600200
 20
19.399800
 40
0.000000
 41
0.000000
 42
0.000000
  0
VERTEX
  8
ET_TOP
 10
22.124800
 20
19.399800
 40
0.000000
 41
0.000000
 42
0.000000
  0
VERTEX
  8
ET_TOP
 10
22.124800
 20
19.600200
 40
0.000000
 41
0.000000
 42
0.000000
  0
VERTEX
  8
ET_TOP
 10
22.399800
 20
19.600200
 40
0.000000
 41
0.000000
 42
0.000000
  0
SEQEND
  0
POLYLINE
  8
ET_TOP
 66
1
 70
1
 40
0.000000
 41
0.000000
 39
0.000000
  0
VERTEX
  8
ET_TOP
 10
3.800200
 20
6.399800
 40
0.000000
 41
0.000000
 42
0.000000
  0
VERTEX
  8
ET_TOP
 10
3.600200
 20
6.399800
 40
0.000000
 41
0.000000
 42
0.000000
  0
VERTEX
  8
ET_TOP
 10
3.600200
 20
6.199800
 40
0.000000
 41
0.000000
 42
0.000000
  0
VERTEX
  8
ET_TOP
 10
3.399400
 20
6.199800
 40
0.000000
 41
0.000000
 42
0.000000
  0
VERTEX
  8
ET_TOP
 10
3.399400
 20
6.399800
 40
0.000000
 41
0.000000
 42
0.000000
  0
VERTEX
  8
ET_TOP
 10
3.199400
 20
6.399800
 40
0.000000
 41
0.000000
 42
0.000000
  0
VERTEX
  8
ET_TOP
 10
3.199400
 20
6.600600
 40
0.000000
 41
0.000000
 42
0.000000
  0
VERTEX
  8
ET_TOP
 10
3.399400
 20
6.600600
 40
0.000000
 41
0.000000
 42
0.000000
  0
VERTEX
  8
ET_TOP
 10
3.399400
 20
6.800600
 40
0.000000
 41
0.000000
 42
0.000000
  0
VERTEX
  8
ET_TOP
 10
3.600200
 20
6.800600
 40
0.000000
 41
0.000000
 42
0.000000
  0
VERTEX
  8
ET_TOP
 10
3.600200
 20
6.600600
 40
0.000000
 41
0.000000
 42
0.000000
  0
VERTEX
  8
ET_TOP
 10
3.800200
 20
6.600600
 40
0.000000
 41
0.000000
 42
0.000000
  0
SEQEND
  0
POLYLINE
  8
ET_TOP
 66
1
 70
1
 40
0.000000
 41
0.000000
 39
0.000000
  0
VERTEX
  8
ET_TOP
 10
3.100200
 20
5.000000
 40
0.000000
 41
0.000000
 42
1.000000
  0
VERTEX
  8
ET_TOP
 10
2.399800
 20
5.000000
 40
0.000000
 41
0.000000
 42
1.000000
  0
SEQEND
  0
POLYLINE
  8
ET_TOP
 66
1
 70
1
 40
0.000000
 41
0.000000
 39
0.000000
  0
VERTEX
  8
ET_TOP
 10
23.600200
 20
21.000000
 40
0.000000
 41
0.000000
 42
1.000000
  0
VERTEX
  8
ET_TOP
 10
22.899800
 20
21.000000
 40
0.000000
 41
0.000000
 42
1.000000
  0
SEQEND
  0
POLYLINE
  8
PIN_TOP
 66
1
 70
1
 40
0.000000
 41
0.000000
 39
0.000000
  0
VERTEX
  8
PIN_TOP
 10
21.760000
 20
49.750000
 40
0.000000
 41
0.000000
 42
0.000000
  0
VERTEX
  8
PIN_TOP
 10
21.760000
 20
48.250000
 40
0.000000
 41
0.000000
 42
0.000000
  0
VERTEX
  8
PIN_TOP
 10
21.200000
 20
48.250000
 40
0.000000
 41
0.000000
 42
0.000000
  0
VERTEX
  8
PIN_TOP
 10
21.200000
 20
49.750000
 40
0.000000
 41
0.000000
 42
0.000000
  0
SEQEND
  0
POLYLINE
  8
PIN_SOLDERMASK_TOP
 66
1
 70
1
 40
0.000000
 41
0.000000
 39
0.000000
  0
VERTEX
  8
PIN_SOLDERMASK_TOP
 10
21.760000
 20
49.750000
 40
0.000000
 41
0.000000
 42
0.000000
  0
VERTEX
  8
PIN_SOLDERMASK_TOP
 10
21.760000
 20
48.250000
 40
0.000000
 41
0.000000
 42
0.000000
  0
VERTEX
  8
PIN_SOLDERMASK_TOP
 10
21.200000
 20
48.250000
 40
0.000000
 41
0.000000
 42
0.000000
  0
VERTEX
  8
PIN_SOLDERMASK_TOP
 10
21.200000
 20
49.750000
 40
0.000000
 41
0.000000
 42
0.000000
  0
SEQEND
  0
POLYLINE
  8
PIN_TOP
 66
1
 70
1
 40
0.000000
 41
0.000000
 39
0.000000
  0
VERTEX
  8
PIN_TOP
 10
20.800000
 20
49.750000
 40
0.000000
 41
0.000000
 42
0.000000
  0
VERTEX
  8
PIN_TOP
 10
20.800000
 20
48.250000
 40
0.000000
 41
0.000000
 42
0.000000
  0
VERTEX
  8
PIN_TOP
 10
20.240000
 20
48.250000
 40
0.000000
 41
0.000000
 42
0.000000
  0
VERTEX
  8
PIN_TOP
 10
20.240000
 20
49.750000
 40
0.000000
 41
0.000000
 42
0.000000
  0
SEQEND
  0
POLYLINE
  8
PIN_SOLDERMASK_TOP
 66
1
 70
1
 40
0.000000
 41
0.000000
 39
0.000000
  0
VERTEX
  8
PIN_SOLDERMASK_TOP
 10
20.800000
 20
49.750000
 40
0.000000
 41
0.000000
 42
0.000000
  0
VERTEX
  8
PIN_SOLDERMASK_TOP
 10
20.800000
 20
48.250000
 40
0.000000
 41
0.000000
 42
0.000000
  0
VERTEX
  8
PIN_SOLDERMASK_TOP
 10
20.240000
 20
48.250000
 40
0.000000
 41
0.000000
 42
0.000000
  0
VERTEX
  8
PIN_SOLDERMASK_TOP
 10
20.240000
 20
49.750000
 40
0.000000
 41
0.000000
 42
0.000000
  0
SEQEND
  0
POLYLINE
  8
PG_SOLDERMASK_TOP
 66
1
 70
0
 40
0.000000
 41
0.000000
 39
0.000000
  0
VERTEX
  8
PG_SOLDERMASK_TOP
 10
22.700200
 20
47.499800
 40
0.100000
 41
0.100000
 42
0.000000
  0
VERTEX
  8
PG_SOLDERMASK_TOP
 10
22.300200
 20
47.499800
 40
0.100000
 41
0.100000
 42
0.000000
  0
SEQEND
  0
POLYLINE
  8
PG_SOLDERMASK_TOP
 66
1
 70
0
 40
0.000000
 41
0.000000
 39
0.000000
  0
VERTEX
  8
PG_SOLDERMASK_TOP
 10
22.500200
 20
47.699800
 40
0.100000
 41
0.100000
 42
0.000000
  0
VERTEX
  8
PG_SOLDERMASK_TOP
 10
22.500200
 20
47.299800
 40
0.100000
 41
0.100000
 42
0.000000
  0
SEQEND
  0
POLYLINE
  8
PG_SOLDERMASK_TOP
 66
1
 70
0
 40
0.000000
 41
0.000000
 39
0.000000
  0
VERTEX
  8
PG_SOLDERMASK_TOP
 10
22.700200
 20
47.499800
 40
0.100000
 41
0.100000
 42
0.000000
  0
VERTEX
  8
PG_SOLDERMASK_TOP
 10
22.300200
 20
47.499800
 40
0.100000
 41
0.100000
 42
0.000000
  0
SEQEND
  0
POLYLINE
  8
PG_SOLDERMASK_TOP
 66
1
 70
0
 40
0.000000
 41
0.000000
 39
0.000000
  0
VERTEX
  8
PG_SOLDERMASK_TOP
 10
22.500200
 20
47.699800
 40
0.100000
 41
0.100000
 42
0.000000
  0
VERTEX
  8
PG_SOLDERMASK_TOP
 10
22.500200
 20
47.299800
 40
0.100000
 41
0.100000
 42
0.000000
  0
SEQEND
  0
POLYLINE
  8
PG_SOLDERMASK_TOP
 66
1
 70
0
 40
0.000000
 41
0.000000
 39
0.000000
  0
VERTEX
  8
PG_SOLDERMASK_TOP
 10
19.500000
 20
50.225000
 40
0.100000
 41
0.100000
 42
0.000000
  0
VERTEX
  8
PG_SOLDERMASK_TOP
 10
19.500000
 20
50.500000
 40
0.100000
 41
0.100000
 42
0.000000
  0
SEQEND
  0
POLYLINE
  8
PG_SOLDERMASK_TOP
 66
1
 70
0
 40
0.000000
 41
0.000000
 39
0.000000
  0
VERTEX
  8
PG_SOLDERMASK_TOP
 10
19.500000
 20
50.500000
 40
0.100000
 41
0.100000
 42
0.000000
  0
VERTEX
  8
PG_SOLDERMASK_TOP
 10
19.775000
 20
50.500000
 40
0.100000
 41
0.100000
 42
0.000000
  0
SEQEND
  0
POLYLINE
  8
PG_SOLDERMASK_TOP
 66
1
 70
1
 40
0.000000
 41
0.000000
 39
0.000000
  0
VERTEX
  8
PG_SOLDERMASK_TOP
 10
23.500000
 20
49.000000
 40
0.000000
 41
0.000000
 42
1.000000
  0
VERTEX
  8
PG_SOLDERMASK_TOP
 10
23.000000
 20
49.000000
 40
0.000000
 41
0.000000
 42
1.000000
  0
SEQEND
  0
POLYLINE
  8
PG_SOLDERMASK_TOP
 66
1
 70
1
 40
0.000000
 41
0.000000
 39
0.000000
  0
VERTEX
  8
PG_SOLDERMASK_TOP
 10
19.000000
 20
49.000000
 40
0.000000
 41
0.000000
 42
1.000000
  0
VERTEX
  8
PG_SOLDERMASK_TOP
 10
18.500000
 20
49.000000
 40
0.000000
 41
0.000000
 42
1.000000
  0
SEQEND
  0
TEXT
  8
RD_SILKSCREEN_TOP
 10
17.480000
 20
51.710000
 11
0.000000
 21
0.000000
 40
0.600000
 41
1.083333
 50
0.000000
  7
STANDARD
 71
0
 72
0
  1
D01
 73
0
  0
POLYLINE
  8
PIN_TOP
 66
1
 70
1
 40
0.000000
 41
0.000000
 39
0.000000
  0
VERTEX
  8
PIN_TOP
 10
5.760000
 20
49.750000
 40
0.000000
 41
0.000000
 42
0.000000
  0
VERTEX
  8
PIN_TOP
 10
5.760000
 20
48.250000
 40
0.000000
 41
0.000000
 42
0.000000
  0
VERTEX
  8
PIN_TOP
 10
5.200000
 20
48.250000
 40
0.000000
 41
0.000000
 42
0.000000
  0
VERTEX
  8
PIN_TOP
 10
5.200000
 20
49.750000
 40
0.000000
 41
0.000000
 42
0.000000
  0
SEQEND
  0
POLYLINE
  8
PIN_SOLDERMASK_TOP
 66
1
 70
1
 40
0.000000
 41
0.000000
 39
0.000000
  0
VERTEX
  8
PIN_SOLDERMASK_TOP
 10
5.760000
 20
49.750000
 40
0.000000
 41
0.000000
 42
0.000000
  0
VERTEX
  8
PIN_SOLDERMASK_TOP
 10
5.760000
 20
48.250000
 40
0.000000
 41
0.000000
 42
0.000000
  0
VERTEX
  8
PIN_SOLDERMASK_TOP
 10
5.200000
 20
48.250000
 40
0.000000
 41
0.000000
 42
0.000000
  0
VERTEX
  8
PIN_SOLDERMASK_TOP
 10
5.200000
 20
49.750000
 40
0.000000
 41
0.000000
 42
0.000000
  0
SEQEND
  0
POLYLINE
  8
PIN_TOP
 66
1
 70
1
 40
0.000000
 41
0.000000
 39
0.000000
  0
VERTEX
  8
PIN_TOP
 10
4.800000
 20
49.750000
 40
0.000000
 41
0.000000
 42
0.000000
  0
VERTEX
  8
PIN_TOP
 10
4.800000
 20
48.250000
 40
0.000000
 41
0.000000
 42
0.000000
  0
VERTEX
  8
PIN_TOP
 10
4.240000
 20
48.250000
 40
0.000000
 41
0.000000
 42
0.000000
  0
VERTEX
  8
PIN_TOP
 10
4.240000
 20
49.750000
 40
0.000000
 41
0.000000
 42
0.000000
  0
SEQEND
  0
POLYLINE
  8
PIN_SOLDERMASK_TOP
 66
1
 70
1
 40
0.000000
 41
0.000000
 39
0.000000
  0
VERTEX
  8
PIN_SOLDERMASK_TOP
 10
4.800000
 20
49.750000
 40
0.000000
 41
0.000000
 42
0.000000
  0
VERTEX
  8
PIN_SOLDERMASK_TOP
 10
4.800000
 20
48.250000
 40
0.000000
 41
0.000000
 42
0.000000
  0
VERTEX
  8
PIN_SOLDERMASK_TOP
 10
4.240000
 20
48.250000
 40
0.000000
 41
0.000000
 42
0.000000
  0
VERTEX
  8
PIN_SOLDERMASK_TOP
 10
4.240000
 20
49.750000
 40
0.000000
 41
0.000000
 42
0.000000
  0
SEQEND
  0
POLYLINE
  8
PG_SOLDERMASK_TOP
 66
1
 70
0
 40
0.000000
 41
0.000000
 39
0.000000
  0
VERTEX
  8
PG_SOLDERMASK_TOP
 10
6.700200
 20
47.499800
 40
0.100000
 41
0.100000
 42
0.000000
  0
VERTEX
  8
PG_SOLDERMASK_TOP
 10
6.300200
 20
47.499800
 40
0.100000
 41
0.100000
 42
0.000000
  0
SEQEND
  0
POLYLINE
  8
PG_SOLDERMASK_TOP
 66
1
 70
0
 40
0.000000
 41
0.000000
 39
0.000000
  0
VERTEX
  8
PG_SOLDERMASK_TOP
 10
6.500200
 20
47.699800
 40
0.100000
 41
0.100000
 42
0.000000
  0
VERTEX
  8
PG_SOLDERMASK_TOP
 10
6.500200
 20
47.299800
 40
0.100000
 41
0.100000
 42
0.000000
  0
SEQEND
  0
POLYLINE
  8
PG_SOLDERMASK_TOP
 66
1
 70
0
 40
0.000000
 41
0.000000
 39
0.000000
  0
VERTEX
  8
PG_SOLDERMASK_TOP
 10
6.700200
 20
47.499800
 40
0.100000
 41
0.100000
 42
0.000000
  0
VERTEX
  8
PG_SOLDERMASK_TOP
 10
6.300200
 20
47.499800
 40
0.100000
 41
0.100000
 42
0.000000
  0
SEQEND
  0
POLYLINE
  8
PG_SOLDERMASK_TOP
 66
1
 70
0
 40
0.000000
 41
0.000000
 39
0.000000
  0
VERTEX
  8
PG_SOLDERMASK_TOP
 10
6.500200
 20
47.699800
 40
0.100000
 41
0.100000
 42
0.000000
  0
VERTEX
  8
PG_SOLDERMASK_TOP
 10
6.500200
 20
47.299800
 40
0.100000
 41
0.100000
 42
0.000000
  0
SEQEND
  0
POLYLINE
  8
PG_SOLDERMASK_TOP
 66
1
 70
0
 40
0.000000
 41
0.000000
 39
0.000000
  0
VERTEX
  8
PG_SOLDERMASK_TOP
 10
3.500000
 20
50.225000
 40
0.100000
 41
0.100000
 42
0.000000
  0
VERTEX
  8
PG_SOLDERMASK_TOP
 10
3.500000
 20
50.500000
 40
0.100000
 41
0.100000
 42
0.000000
  0
SEQEND
  0
POLYLINE
  8
PG_SOLDERMASK_TOP
 66
1
 70
0
 40
0.000000
 41
0.000000
 39
0.000000
  0
VERTEX
  8
PG_SOLDERMASK_TOP
 10
3.500000
 20
50.500000
 40
0.100000
 41
0.100000
 42
0.000000
  0
VERTEX
  8
PG_SOLDERMASK_TOP
 10
3.775000
 20
50.500000
 40
0.100000
 41
0.100000
 42
0.000000
  0
SEQEND
  0
POLYLINE
  8
PG_SOLDERMASK_TOP
 66
1
 70
1
 40
0.000000
 41
0.000000
 39
0.000000
  0
VERTEX
  8
PG_SOLDERMASK_TOP
 10
7.500000
 20
49.000000
 40
0.000000
 41
0.000000
 42
1.000000
  0
VERTEX
  8
PG_SOLDERMASK_TOP
 10
7.000000
 20
49.000000
 40
0.000000
 41
0.000000
 42
1.000000
  0
SEQEND
  0
POLYLINE
  8
PG_SOLDERMASK_TOP
 66
1
 70
1
 40
0.000000
 41
0.000000
 39
0.000000
  0
VERTEX
  8
PG_SOLDERMASK_TOP
 10
3.000000
 20
49.000000
 40
0.000000
 41
0.000000
 42
1.000000
  0
VERTEX
  8
PG_SOLDERMASK_TOP
 10
2.500000
 20
49.000000
 40
0.000000
 41
0.000000
 42
1.000000
  0
SEQEND
  0
TEXT
  8
RD_SILKSCREEN_TOP
 10
1.480000
 20
51.710000
 11
0.000000
 21
0.000000
 40
0.600000
 41
1.083333
 50
0.000000
  7
STANDARD
 71
0
 72
0
  1
D02
 73
0
  0
POLYLINE
  8
PIN_TOP
 66
1
 70
1
 40
0.000000
 41
0.000000
 39
0.000000
  0
VERTEX
  8
PIN_TOP
 10
4.240000
 20
64.250000
 40
0.000000
 41
0.000000
 42
0.000000
  0
VERTEX
  8
PIN_TOP
 10
4.240000
 20
65.750000
 40
0.000000
 41
0.000000
 42
0.000000
  0
VERTEX
  8
PIN_TOP
 10
4.800000
 20
65.750000
 40
0.000000
 41
0.000000
 42
0.000000
  0
VERTEX
  8
PIN_TOP
 10
4.800000
 20
64.250000
 40
0.000000
 41
0.000000
 42
0.000000
  0
SEQEND
  0
POLYLINE
  8
PIN_SOLDERMASK_TOP
 66
1
 70
1
 40
0.000000
 41
0.000000
 39
0.000000
  0
VERTEX
  8
PIN_SOLDERMASK_TOP
 10
4.240000
 20
64.250000
 40
0.000000
 41
0.000000
 42
0.000000
  0
VERTEX
  8
PIN_SOLDERMASK_TOP
 10
4.240000
 20
65.750000
 40
0.000000
 41
0.000000
 42
0.000000
  0
VERTEX
  8
PIN_SOLDERMASK_TOP
 10
4.800000
 20
65.750000
 40
0.000000
 41
0.000000
 42
0.000000
  0
VERTEX
  8
PIN_SOLDERMASK_TOP
 10
4.800000
 20
64.250000
 40
0.000000
 41
0.000000
 42
0.000000
  0
SEQEND
  0
POLYLINE
  8
PIN_TOP
 66
1
 70
1
 40
0.000000
 41
0.000000
 39
0.000000
  0
VERTEX
  8
PIN_TOP
 10
5.200000
 20
64.250000
 40
0.000000
 41
0.000000
 42
0.000000
  0
VERTEX
  8
PIN_TOP
 10
5.200000
 20
65.750000
 40
0.000000
 41
0.000000
 42
0.000000
  0
VERTEX
  8
PIN_TOP
 10
5.760000
 20
65.750000
 40
0.000000
 41
0.000000
 42
0.000000
  0
VERTEX
  8
PIN_TOP
 10
5.760000
 20
64.250000
 40
0.000000
 41
0.000000
 42
0.000000
  0
SEQEND
  0
POLYLINE
  8
PIN_SOLDERMASK_TOP
 66
1
 70
1
 40
0.000000
 41
0.000000
 39
0.000000
  0
VERTEX
  8
PIN_SOLDERMASK_TOP
 10
5.200000
 20
64.250000
 40
0.000000
 41
0.000000
 42
0.000000
  0
VERTEX
  8
PIN_SOLDERMASK_TOP
 10
5.200000
 20
65.750000
 40
0.000000
 41
0.000000
 42
0.000000
  0
VERTEX
  8
PIN_SOLDERMASK_TOP
 10
5.760000
 20
65.750000
 40
0.000000
 41
0.000000
 42
0.000000
  0
VERTEX
  8
PIN_SOLDERMASK_TOP
 10
5.760000
 20
64.250000
 40
0.000000
 41
0.000000
 42
0.000000
  0
SEQEND
  0
POLYLINE
  8
PG_SOLDERMASK_TOP
 66
1
 70
0
 40
0.000000
 41
0.000000
 39
0.000000
  0
VERTEX
  8
PG_SOLDERMASK_TOP
 10
3.299800
 20
66.500200
 40
0.100000
 41
0.100000
 42
0.000000
  0
VERTEX
  8
PG_SOLDERMASK_TOP
 10
3.699800
 20
66.500200
 40
0.100000
 41
0.100000
 42
0.000000
  0
SEQEND
  0
POLYLINE
  8
PG_SOLDERMASK_TOP
 66
1
 70
0
 40
0.000000
 41
0.000000
 39
0.000000
  0
VERTEX
  8
PG_SOLDERMASK_TOP
 10
3.499800
 20
66.300200
 40
0.100000
 41
0.100000
 42
0.000000
  0
VERTEX
  8
PG_SOLDERMASK_TOP
 10
3.499800
 20
66.700200
 40
0.100000
 41
0.100000
 42
0.000000
  0
SEQEND
  0
POLYLINE
  8
PG_SOLDERMASK_TOP
 66
1
 70
0
 40
0.000000
 41
0.000000
 39
0.000000
  0
VERTEX
  8
PG_SOLDERMASK_TOP
 10
3.299800
 20
66.500200
 40
0.100000
 41
0.100000
 42
0.000000
  0
VERTEX
  8
PG_SOLDERMASK_TOP
 10
3.699800
 20
66.500200
 40
0.100000
 41
0.100000
 42
0.000000
  0
SEQEND
  0
POLYLINE
  8
PG_SOLDERMASK_TOP
 66
1
 70
0
 40
0.000000
 41
0.000000
 39
0.000000
  0
VERTEX
  8
PG_SOLDERMASK_TOP
 10
3.499800
 20
66.300200
 40
0.100000
 41
0.100000
 42
0.000000
  0
VERTEX
  8
PG_SOLDERMASK_TOP
 10
3.499800
 20
66.700200
 40
0.100000
 41
0.100000
 42
0.000000
  0
SEQEND
  0
POLYLINE
  8
PG_SOLDERMASK_TOP
 66
1
 70
0
 40
0.000000
 41
0.000000
 39
0.000000
  0
VERTEX
  8
PG_SOLDERMASK_TOP
 10
6.500000
 20
63.775000
 40
0.100000
 41
0.100000
 42
0.000000
  0
VERTEX
  8
PG_SOLDERMASK_TOP
 10
6.500000
 20
63.500000
 40
0.100000
 41
0.100000
 42
0.000000
  0
SEQEND
  0
POLYLINE
  8
PG_SOLDERMASK_TOP
 66
1
 70
0
 40
0.000000
 41
0.000000
 39
0.000000
  0
VERTEX
  8
PG_SOLDERMASK_TOP
 10
6.500000
 20
63.500000
 40
0.100000
 41
0.100000
 42
0.000000
  0
VERTEX
  8
PG_SOLDERMASK_TOP
 10
6.225000
 20
63.500000
 40
0.100000
 41
0.100000
 42
0.000000
  0
SEQEND
  0
POLYLINE
  8
PG_SOLDERMASK_TOP
 66
1
 70
1
 40
0.000000
 41
0.000000
 39
0.000000
  0
VERTEX
  8
PG_SOLDERMASK_TOP
 10
3.000000
 20
65.000000
 40
0.000000
 41
0.000000
 42
1.000000
  0
VERTEX
  8
PG_SOLDERMASK_TOP
 10
2.500000
 20
65.000000
 40
0.000000
 41
0.000000
 42
1.000000
  0
SEQEND
  0
POLYLINE
  8
PG_SOLDERMASK_TOP
 66
1
 70
1
 40
0.000000
 41
0.000000
 39
0.000000
  0
VERTEX
  8
PG_SOLDERMASK_TOP
 10
7.500000
 20
65.000000
 40
0.000000
 41
0.000000
 42
1.000000
  0
VERTEX
  8
PG_SOLDERMASK_TOP
 10
7.000000
 20
65.000000
 40
0.000000
 41
0.000000
 42
1.000000
  0
SEQEND
  0
TEXT
  8
RD_SILKSCREEN_TOP
 10
-0.480000
 20
66.790000
 11
0.000000
 21
0.000000
 40
0.600000
 41
1.083333
 50
0.000000
  7
STANDARD
 71
0
 72
0
  1
D03
 73
0
  0
POLYLINE
  8
PIN_TOP
 66
1
 70
1
 40
0.000000
 41
0.000000
 39
0.000000
  0
VERTEX
  8
PIN_TOP
 10
20.240000
 20
64.250000
 40
0.000000
 41
0.000000
 42
0.000000
  0
VERTEX
  8
PIN_TOP
 10
20.240000
 20
65.750000
 40
0.000000
 41
0.000000
 42
0.000000
  0
VERTEX
  8
PIN_TOP
 10
20.800000
 20
65.750000
 40
0.000000
 41
0.000000
 42
0.000000
  0
VERTEX
  8
PIN_TOP
 10
20.800000
 20
64.250000
 40
0.000000
 41
0.000000
 42
0.000000
  0
SEQEND
  0
POLYLINE
  8
PIN_SOLDERMASK_TOP
 66
1
 70
1
 40
0.000000
 41
0.000000
 39
0.000000
  0
VERTEX
  8
PIN_SOLDERMASK_TOP
 10
20.240000
 20
64.250000
 40
0.000000
 41
0.000000
 42
0.000000
  0
VERTEX
  8
PIN_SOLDERMASK_TOP
 10
20.240000
 20
65.750000
 40
0.000000
 41
0.000000
 42
0.000000
  0
VERTEX
  8
PIN_SOLDERMASK_TOP
 10
20.800000
 20
65.750000
 40
0.000000
 41
0.000000
 42
0.000000
  0
VERTEX
  8
PIN_SOLDERMASK_TOP
 10
20.800000
 20
64.250000
 40
0.000000
 41
0.000000
 42
0.000000
  0
SEQEND
  0
POLYLINE
  8
PIN_TOP
 66
1
 70
1
 40
0.000000
 41
0.000000
 39
0.000000
  0
VERTEX
  8
PIN_TOP
 10
21.200000
 20
64.250000
 40
0.000000
 41
0.000000
 42
0.000000
  0
VERTEX
  8
PIN_TOP
 10
21.200000
 20
65.750000
 40
0.000000
 41
0.000000
 42
0.000000
  0
VERTEX
  8
PIN_TOP
 10
21.760000
 20
65.750000
 40
0.000000
 41
0.000000
 42
0.000000
  0
VERTEX
  8
PIN_TOP
 10
21.760000
 20
64.250000
 40
0.000000
 41
0.000000
 42
0.000000
  0
SEQEND
  0
POLYLINE
  8
PIN_SOLDERMASK_TOP
 66
1
 70
1
 40
0.000000
 41
0.000000
 39
0.000000
  0
VERTEX
  8
PIN_SOLDERMASK_TOP
 10
21.200000
 20
64.250000
 40
0.000000
 41
0.000000
 42
0.000000
  0
VERTEX
  8
PIN_SOLDERMASK_TOP
 10
21.200000
 20
65.750000
 40
0.000000
 41
0.000000
 42
0.000000
  0
VERTEX
  8
PIN_SOLDERMASK_TOP
 10
21.760000
 20
65.750000
 40
0.000000
 41
0.000000
 42
0.000000
  0
VERTEX
  8
PIN_SOLDERMASK_TOP
 10
21.760000
 20
64.250000
 40
0.000000
 41
0.000000
 42
0.000000
  0
SEQEND
  0
POLYLINE
  8
PG_SOLDERMASK_TOP
 66
1
 70
0
 40
0.000000
 41
0.000000
 39
0.000000
  0
VERTEX
  8
PG_SOLDERMASK_TOP
 10
19.299800
 20
66.500200
 40
0.100000
 41
0.100000
 42
0.000000
  0
VERTEX
  8
PG_SOLDERMASK_TOP
 10
19.699800
 20
66.500200
 40
0.100000
 41
0.100000
 42
0.000000
  0
SEQEND
  0
POLYLINE
  8
PG_SOLDERMASK_TOP
 66
1
 70
0
 40
0.000000
 41
0.000000
 39
0.000000
  0
VERTEX
  8
PG_SOLDERMASK_TOP
 10
19.499800
 20
66.300200
 40
0.100000
 41
0.100000
 42
0.000000
  0
VERTEX
  8
PG_SOLDERMASK_TOP
 10
19.499800
 20
66.700200
 40
0.100000
 41
0.100000
 42
0.000000
  0
SEQEND
  0
POLYLINE
  8
PG_SOLDERMASK_TOP
 66
1
 70
0
 40
0.000000
 41
0.000000
 39
0.000000
  0
VERTEX
  8
PG_SOLDERMASK_TOP
 10
19.299800
 20
66.500200
 40
0.100000
 41
0.100000
 42
0.000000
  0
VERTEX
  8
PG_SOLDERMASK_TOP
 10
19.699800
 20
66.500200
 40
0.100000
 41
0.100000
 42
0.000000
  0
SEQEND
  0
POLYLINE
  8
PG_SOLDERMASK_TOP
 66
1
 70
0
 40
0.000000
 41
0.000000
 39
0.000000
  0
VERTEX
  8
PG_SOLDERMASK_TOP
 10
19.499800
 20
66.300200
 40
0.100000
 41
0.100000
 42
0.000000
  0
VERTEX
  8
PG_SOLDERMASK_TOP
 10
19.499800
 20
66.700200
 40
0.100000
 41
0.100000
 42
0.000000
  0
SEQEND
  0
POLYLINE
  8
PG_SOLDERMASK_TOP
 66
1
 70
0
 40
0.000000
 41
0.000000
 39
0.000000
  0
VERTEX
  8
PG_SOLDERMASK_TOP
 10
22.500000
 20
63.775000
 40
0.100000
 41
0.100000
 42
0.000000
  0
VERTEX
  8
PG_SOLDERMASK_TOP
 10
22.500000
 20
63.500000
 40
0.100000
 41
0.100000
 42
0.000000
  0
SEQEND
  0
POLYLINE
  8
PG_SOLDERMASK_TOP
 66
1
 70
0
 40
0.000000
 41
0.000000
 39
0.000000
  0
VERTEX
  8
PG_SOLDERMASK_TOP
 10
22.500000
 20
63.500000
 40
0.100000
 41
0.100000
 42
0.000000
  0
VERTEX
  8
PG_SOLDERMASK_TOP
 10
22.225000
 20
63.500000
 40
0.100000
 41
0.100000
 42
0.000000
  0
SEQEND
  0
POLYLINE
  8
PG_SOLDERMASK_TOP
 66
1
 70
1
 40
0.000000
 41
0.000000
 39
0.000000
  0
VERTEX
  8
PG_SOLDERMASK_TOP
 10
19.000000
 20
65.000000
 40
0.000000
 41
0.000000
 42
1.000000
  0
VERTEX
  8
PG_SOLDERMASK_TOP
 10
18.500000
 20
65.000000
 40
0.000000
 41
0.000000
 42
1.000000
  0
SEQEND
  0
POLYLINE
  8
PG_SOLDERMASK_TOP
 66
1
 70
1
 40
0.000000
 41
0.000000
 39
0.000000
  0
VERTEX
  8
PG_SOLDERMASK_TOP
 10
23.500000
 20
65.000000
 40
0.000000
 41
0.000000
 42
1.000000
  0
VERTEX
  8
PG_SOLDERMASK_TOP
 10
23.000000
 20
65.000000
 40
0.000000
 41
0.000000
 42
1.000000
  0
SEQEND
  0
TEXT
  8
RD_SILKSCREEN_TOP
 10
15.520000
 20
66.790000
 11
0.000000
 21
0.000000
 40
0.600000
 41
1.083333
 50
0.000000
  7
STANDARD
 71
0
 72
0
  1
D04
 73
0
  0
POLYLINE
  8
PIN_TOP
 66
1
 70
1
 40
0.000000
 41
0.000000
 39
0.000000
  0
VERTEX
  8
PIN_TOP
 10
48.240000
 20
64.250000
 40
0.000000
 41
0.000000
 42
0.000000
  0
VERTEX
  8
PIN_TOP
 10
48.240000
 20
65.750000
 40
0.000000
 41
0.000000
 42
0.000000
  0
VERTEX
  8
PIN_TOP
 10
48.800000
 20
65.750000
 40
0.000000
 41
0.000000
 42
0.000000
  0
VERTEX
  8
PIN_TOP
 10
48.800000
 20
64.250000
 40
0.000000
 41
0.000000
 42
0.000000
  0
SEQEND
  0
POLYLINE
  8
PIN_SOLDERMASK_TOP
 66
1
 70
1
 40
0.000000
 41
0.000000
 39
0.000000
  0
VERTEX
  8
PIN_SOLDERMASK_TOP
 10
48.240000
 20
64.250000
 40
0.000000
 41
0.000000
 42
0.000000
  0
VERTEX
  8
PIN_SOLDERMASK_TOP
 10
48.240000
 20
65.750000
 40
0.000000
 41
0.000000
 42
0.000000
  0
VERTEX
  8
PIN_SOLDERMASK_TOP
 10
48.800000
 20
65.750000
 40
0.000000
 41
0.000000
 42
0.000000
  0
VERTEX
  8
PIN_SOLDERMASK_TOP
 10
48.800000
 20
64.250000
 40
0.000000
 41
0.000000
 42
0.000000
  0
SEQEND
  0
POLYLINE
  8
PIN_TOP
 66
1
 70
1
 40
0.000000
 41
0.000000
 39
0.000000
  0
VERTEX
  8
PIN_TOP
 10
49.200000
 20
64.250000
 40
0.000000
 41
0.000000
 42
0.000000
  0
VERTEX
  8
PIN_TOP
 10
49.200000
 20
65.750000
 40
0.000000
 41
0.000000
 42
0.000000
  0
VERTEX
  8
PIN_TOP
 10
49.760000
 20
65.750000
 40
0.000000
 41
0.000000
 42
0.000000
  0
VERTEX
  8
PIN_TOP
 10
49.760000
 20
64.250000
 40
0.000000
 41
0.000000
 42
0.000000
  0
SEQEND
  0
POLYLINE
  8
PIN_SOLDERMASK_TOP
 66
1
 70
1
 40
0.000000
 41
0.000000
 39
0.000000
  0
VERTEX
  8
PIN_SOLDERMASK_TOP
 10
49.200000
 20
64.250000
 40
0.000000
 41
0.000000
 42
0.000000
  0
VERTEX
  8
PIN_SOLDERMASK_TOP
 10
49.200000
 20
65.750000
 40
0.000000
 41
0.000000
 42
0.000000
  0
VERTEX
  8
PIN_SOLDERMASK_TOP
 10
49.760000
 20
65.750000
 40
0.000000
 41
0.000000
 42
0.000000
  0
VERTEX
  8
PIN_SOLDERMASK_TOP
 10
49.760000
 20
64.250000
 40
0.000000
 41
0.000000
 42
0.000000
  0
SEQEND
  0
POLYLINE
  8
PG_SOLDERMASK_TOP
 66
1
 70
0
 40
0.000000
 41
0.000000
 39
0.000000
  0
VERTEX
  8
PG_SOLDERMASK_TOP
 10
47.299800
 20
66.500200
 40
0.100000
 41
0.100000
 42
0.000000
  0
VERTEX
  8
PG_SOLDERMASK_TOP
 10
47.699800
 20
66.500200
 40
0.100000
 41
0.100000
 42
0.000000
  0
SEQEND
  0
POLYLINE
  8
PG_SOLDERMASK_TOP
 66
1
 70
0
 40
0.000000
 41
0.000000
 39
0.000000
  0
VERTEX
  8
PG_SOLDERMASK_TOP
 10
47.499800
 20
66.300200
 40
0.100000
 41
0.100000
 42
0.000000
  0
VERTEX
  8
PG_SOLDERMASK_TOP
 10
47.499800
 20
66.700200
 40
0.100000
 41
0.100000
 42
0.000000
  0
SEQEND
  0
POLYLINE
  8
PG_SOLDERMASK_TOP
 66
1
 70
0
 40
0.000000
 41
0.000000
 39
0.000000
  0
VERTEX
  8
PG_SOLDERMASK_TOP
 10
47.299800
 20
66.500200
 40
0.100000
 41
0.100000
 42
0.000000
  0
VERTEX
  8
PG_SOLDERMASK_TOP
 10
47.699800
 20
66.500200
 40
0.100000
 41
0.100000
 42
0.000000
  0
SEQEND
  0
POLYLINE
  8
PG_SOLDERMASK_TOP
 66
1
 70
0
 40
0.000000
 41
0.000000
 39
0.000000
  0
VERTEX
  8
PG_SOLDERMASK_TOP
 10
47.499800
 20
66.300200
 40
0.100000
 41
0.100000
 42
0.000000
  0
VERTEX
  8
PG_SOLDERMASK_TOP
 10
47.499800
 20
66.700200
 40
0.100000
 41
0.100000
 42
0.000000
  0
SEQEND
  0
POLYLINE
  8
PG_SOLDERMASK_TOP
 66
1
 70
0
 40
0.000000
 41
0.000000
 39
0.000000
  0
VERTEX
  8
PG_SOLDERMASK_TOP
 10
50.500000
 20
63.775000
 40
0.100000
 41
0.100000
 42
0.000000
  0
VERTEX
  8
PG_SOLDERMASK_TOP
 10
50.500000
 20
63.500000
 40
0.100000
 41
0.100000
 42
0.000000
  0
SEQEND
  0
POLYLINE
  8
PG_SOLDERMASK_TOP
 66
1
 70
0
 40
0.000000
 41
0.000000
 39
0.000000
  0
VERTEX
  8
PG_SOLDERMASK_TOP
 10
50.500000
 20
63.500000
 40
0.100000
 41
0.100000
 42
0.000000
  0
VERTEX
  8
PG_SOLDERMASK_TOP
 10
50.225000
 20
63.500000
 40
0.100000
 41
0.100000
 42
0.000000
  0
SEQEND
  0
POLYLINE
  8
PG_SOLDERMASK_TOP
 66
1
 70
1
 40
0.000000
 41
0.000000
 39
0.000000
  0
VERTEX
  8
PG_SOLDERMASK_TOP
 10
47.000000
 20
65.000000
 40
0.000000
 41
0.000000
 42
1.000000
  0
VERTEX
  8
PG_SOLDERMASK_TOP
 10
46.500000
 20
65.000000
 40
0.000000
 41
0.000000
 42
1.000000
  0
SEQEND
  0
POLYLINE
  8
PG_SOLDERMASK_TOP
 66
1
 70
1
 40
0.000000
 41
0.000000
 39
0.000000
  0
VERTEX
  8
PG_SOLDERMASK_TOP
 10
51.500000
 20
65.000000
 40
0.000000
 41
0.000000
 42
1.000000
  0
VERTEX
  8
PG_SOLDERMASK_TOP
 10
51.000000
 20
65.000000
 40
0.000000
 41
0.000000
 42
1.000000
  0
SEQEND
  0
TEXT
  8
RD_SILKSCREEN_TOP
 10
43.520000
 20
66.790000
 11
0.000000
 21
0.000000
 40
0.600000
 41
1.083333
 50
0.000000
  7
STANDARD
 71
0
 72
0
  1
D05
 73
0
  0
POLYLINE
  8
PIN_TOP
 66
1
 70
1
 40
0.000000
 41
0.000000
 39
0.000000
  0
VERTEX
  8
PIN_TOP
 10
64.240000
 20
64.250000
 40
0.000000
 41
0.000000
 42
0.000000
  0
VERTEX
  8
PIN_TOP
 10
64.240000
 20
65.750000
 40
0.000000
 41
0.000000
 42
0.000000
  0
VERTEX
  8
PIN_TOP
 10
64.800000
 20
65.750000
 40
0.000000
 41
0.000000
 42
0.000000
  0
VERTEX
  8
PIN_TOP
 10
64.800000
 20
64.250000
 40
0.000000
 41
0.000000
 42
0.000000
  0
SEQEND
  0
POLYLINE
  8
PIN_SOLDERMASK_TOP
 66
1
 70
1
 40
0.000000
 41
0.000000
 39
0.000000
  0
VERTEX
  8
PIN_SOLDERMASK_TOP
 10
64.240000
 20
64.250000
 40
0.000000
 41
0.000000
 42
0.000000
  0
VERTEX
  8
PIN_SOLDERMASK_TOP
 10
64.240000
 20
65.750000
 40
0.000000
 41
0.000000
 42
0.000000
  0
VERTEX
  8
PIN_SOLDERMASK_TOP
 10
64.800000
 20
65.750000
 40
0.000000
 41
0.000000
 42
0.000000
  0
VERTEX
  8
PIN_SOLDERMASK_TOP
 10
64.800000
 20
64.250000
 40
0.000000
 41
0.000000
 42
0.000000
  0
SEQEND
  0
POLYLINE
  8
PIN_TOP
 66
1
 70
1
 40
0.000000
 41
0.000000
 39
0.000000
  0
VERTEX
  8
PIN_TOP
 10
65.200000
 20
64.250000
 40
0.000000
 41
0.000000
 42
0.000000
  0
VERTEX
  8
PIN_TOP
 10
65.200000
 20
65.750000
 40
0.000000
 41
0.000000
 42
0.000000
  0
VERTEX
  8
PIN_TOP
 10
65.760000
 20
65.750000
 40
0.000000
 41
0.000000
 42
0.000000
  0
VERTEX
  8
PIN_TOP
 10
65.760000
 20
64.250000
 40
0.000000
 41
0.000000
 42
0.000000
  0
SEQEND
  0
POLYLINE
  8
PIN_SOLDERMASK_TOP
 66
1
 70
1
 40
0.000000
 41
0.000000
 39
0.000000
  0
VERTEX
  8
PIN_SOLDERMASK_TOP
 10
65.200000
 20
64.250000
 40
0.000000
 41
0.000000
 42
0.000000
  0
VERTEX
  8
PIN_SOLDERMASK_TOP
 10
65.200000
 20
65.750000
 40
0.000000
 41
0.000000
 42
0.000000
  0
VERTEX
  8
PIN_SOLDERMASK_TOP
 10
65.760000
 20
65.750000
 40
0.000000
 41
0.000000
 42
0.000000
  0
VERTEX
  8
PIN_SOLDERMASK_TOP
 10
65.760000
 20
64.250000
 40
0.000000
 41
0.000000
 42
0.000000
  0
SEQEND
  0
POLYLINE
  8
PG_SOLDERMASK_TOP
 66
1
 70
0
 40
0.000000
 41
0.000000
 39
0.000000
  0
VERTEX
  8
PG_SOLDERMASK_TOP
 10
63.299800
 20
66.500200
 40
0.100000
 41
0.100000
 42
0.000000
  0
VERTEX
  8
PG_SOLDERMASK_TOP
 10
63.699800
 20
66.500200
 40
0.100000
 41
0.100000
 42
0.000000
  0
SEQEND
  0
POLYLINE
  8
PG_SOLDERMASK_TOP
 66
1
 70
0
 40
0.000000
 41
0.000000
 39
0.000000
  0
VERTEX
  8
PG_SOLDERMASK_TOP
 10
63.499800
 20
66.300200
 40
0.100000
 41
0.100000
 42
0.000000
  0
VERTEX
  8
PG_SOLDERMASK_TOP
 10
63.499800
 20
66.700200
 40
0.100000
 41
0.100000
 42
0.000000
  0
SEQEND
  0
POLYLINE
  8
PG_SOLDERMASK_TOP
 66
1
 70
0
 40
0.000000
 41
0.000000
 39
0.000000
  0
VERTEX
  8
PG_SOLDERMASK_TOP
 10
63.299800
 20
66.500200
 40
0.100000
 41
0.100000
 42
0.000000
  0
VERTEX
  8
PG_SOLDERMASK_TOP
 10
63.699800
 20
66.500200
 40
0.100000
 41
0.100000
 42
0.000000
  0
SEQEND
  0
POLYLINE
  8
PG_SOLDERMASK_TOP
 66
1
 70
0
 40
0.000000
 41
0.000000
 39
0.000000
  0
VERTEX
  8
PG_SOLDERMASK_TOP
 10
63.499800
 20
66.300200
 40
0.100000
 41
0.100000
 42
0.000000
  0
VERTEX
  8
PG_SOLDERMASK_TOP
 10
63.499800
 20
66.700200
 40
0.100000
 41
0.100000
 42
0.000000
  0
SEQEND
  0
POLYLINE
  8
PG_SOLDERMASK_TOP
 66
1
 70
0
 40
0.000000
 41
0.000000
 39
0.000000
  0
VERTEX
  8
PG_SOLDERMASK_TOP
 10
66.500000
 20
63.775000
 40
0.100000
 41
0.100000
 42
0.000000
  0
VERTEX
  8
PG_SOLDERMASK_TOP
 10
66.500000
 20
63.500000
 40
0.100000
 41
0.100000
 42
0.000000
  0
SEQEND
  0
POLYLINE
  8
PG_SOLDERMASK_TOP
 66
1
 70
0
 40
0.000000
 41
0.000000
 39
0.000000
  0
VERTEX
  8
PG_SOLDERMASK_TOP
 10
66.500000
 20
63.500000
 40
0.100000
 41
0.100000
 42
0.000000
  0
VERTEX
  8
PG_SOLDERMASK_TOP
 10
66.225000
 20
63.500000
 40
0.100000
 41
0.100000
 42
0.000000
  0
SEQEND
  0
POLYLINE
  8
PG_SOLDERMASK_TOP
 66
1
 70
1
 40
0.000000
 41
0.000000
 39
0.000000
  0
VERTEX
  8
PG_SOLDERMASK_TOP
 10
63.000000
 20
65.000000
 40
0.000000
 41
0.000000
 42
1.000000
  0
VERTEX
  8
PG_SOLDERMASK_TOP
 10
62.500000
 20
65.000000
 40
0.000000
 41
0.000000
 42
1.000000
  0
SEQEND
  0
POLYLINE
  8
PG_SOLDERMASK_TOP
 66
1
 70
1
 40
0.000000
 41
0.000000
 39
0.000000
  0
VERTEX
  8
PG_SOLDERMASK_TOP
 10
67.500000
 20
65.000000
 40
0.000000
 41
0.000000
 42
1.000000
  0
VERTEX
  8
PG_SOLDERMASK_TOP
 10
67.000000
 20
65.000000
 40
0.000000
 41
0.000000
 42
1.000000
  0
SEQEND
  0
TEXT
  8
RD_SILKSCREEN_TOP
 10
59.520000
 20
66.790000
 11
0.000000
 21
0.000000
 40
0.600000
 41
1.083333
 50
0.000000
  7
STANDARD
 71
0
 72
0
  1
D06
 73
0
  0
POLYLINE
  8
PIN_TOP
 66
1
 70
1
 40
0.000000
 41
0.000000
 39
0.000000
  0
VERTEX
  8
PIN_TOP
 10
65.760000
 20
49.750000
 40
0.000000
 41
0.000000
 42
0.000000
  0
VERTEX
  8
PIN_TOP
 10
65.760000
 20
48.250000
 40
0.000000
 41
0.000000
 42
0.000000
  0
VERTEX
  8
PIN_TOP
 10
65.200000
 20
48.250000
 40
0.000000
 41
0.000000
 42
0.000000
  0
VERTEX
  8
PIN_TOP
 10
65.200000
 20
49.750000
 40
0.000000
 41
0.000000
 42
0.000000
  0
SEQEND
  0
POLYLINE
  8
PIN_SOLDERMASK_TOP
 66
1
 70
1
 40
0.000000
 41
0.000000
 39
0.000000
  0
VERTEX
  8
PIN_SOLDERMASK_TOP
 10
65.760000
 20
49.750000
 40
0.000000
 41
0.000000
 42
0.000000
  0
VERTEX
  8
PIN_SOLDERMASK_TOP
 10
65.760000
 20
48.250000
 40
0.000000
 41
0.000000
 42
0.000000
  0
VERTEX
  8
PIN_SOLDERMASK_TOP
 10
65.200000
 20
48.250000
 40
0.000000
 41
0.000000
 42
0.000000
  0
VERTEX
  8
PIN_SOLDERMASK_TOP
 10
65.200000
 20
49.750000
 40
0.000000
 41
0.000000
 42
0.000000
  0
SEQEND
  0
POLYLINE
  8
PIN_TOP
 66
1
 70
1
 40
0.000000
 41
0.000000
 39
0.000000
  0
VERTEX
  8
PIN_TOP
 10
64.800000
 20
49.750000
 40
0.000000
 41
0.000000
 42
0.000000
  0
VERTEX
  8
PIN_TOP
 10
64.800000
 20
48.250000
 40
0.000000
 41
0.000000
 42
0.000000
  0
VERTEX
  8
PIN_TOP
 10
64.240000
 20
48.250000
 40
0.000000
 41
0.000000
 42
0.000000
  0
VERTEX
  8
PIN_TOP
 10
64.240000
 20
49.750000
 40
0.000000
 41
0.000000
 42
0.000000
  0
SEQEND
  0
POLYLINE
  8
PIN_SOLDERMASK_TOP
 66
1
 70
1
 40
0.000000
 41
0.000000
 39
0.000000
  0
VERTEX
  8
PIN_SOLDERMASK_TOP
 10
64.800000
 20
49.750000
 40
0.000000
 41
0.000000
 42
0.000000
  0
VERTEX
  8
PIN_SOLDERMASK_TOP
 10
64.800000
 20
48.250000
 40
0.000000
 41
0.000000
 42
0.000000
  0
VERTEX
  8
PIN_SOLDERMASK_TOP
 10
64.240000
 20
48.250000
 40
0.000000
 41
0.000000
 42
0.000000
  0
VERTEX
  8
PIN_SOLDERMASK_TOP
 10
64.240000
 20
49.750000
 40
0.000000
 41
0.000000
 42
0.000000
  0
SEQEND
  0
POLYLINE
  8
PG_SOLDERMASK_TOP
 66
1
 70
0
 40
0.000000
 41
0.000000
 39
0.000000
  0
VERTEX
  8
PG_SOLDERMASK_TOP
 10
66.700200
 20
47.499800
 40
0.100000
 41
0.100000
 42
0.000000
  0
VERTEX
  8
PG_SOLDERMASK_TOP
 10
66.300200
 20
47.499800
 40
0.100000
 41
0.100000
 42
0.000000
  0
SEQEND
  0
POLYLINE
  8
PG_SOLDERMASK_TOP
 66
1
 70
0
 40
0.000000
 41
0.000000
 39
0.000000
  0
VERTEX
  8
PG_SOLDERMASK_TOP
 10
66.500200
 20
47.699800
 40
0.100000
 41
0.100000
 42
0.000000
  0
VERTEX
  8
PG_SOLDERMASK_TOP
 10
66.500200
 20
47.299800
 40
0.100000
 41
0.100000
 42
0.000000
  0
SEQEND
  0
POLYLINE
  8
PG_SOLDERMASK_TOP
 66
1
 70
0
 40
0.000000
 41
0.000000
 39
0.000000
  0
VERTEX
  8
PG_SOLDERMASK_TOP
 10
66.700200
 20
47.499800
 40
0.100000
 41
0.100000
 42
0.000000
  0
VERTEX
  8
PG_SOLDERMASK_TOP
 10
66.300200
 20
47.499800
 40
0.100000
 41
0.100000
 42
0.000000
  0
SEQEND
  0
POLYLINE
  8
PG_SOLDERMASK_TOP
 66
1
 70
0
 40
0.000000
 41
0.000000
 39
0.000000
  0
VERTEX
  8
PG_SOLDERMASK_TOP
 10
66.500200
 20
47.699800
 40
0.100000
 41
0.100000
 42
0.000000
  0
VERTEX
  8
PG_SOLDERMASK_TOP
 10
66.500200
 20
47.299800
 40
0.100000
 41
0.100000
 42
0.000000
  0
SEQEND
  0
POLYLINE
  8
PG_SOLDERMASK_TOP
 66
1
 70
0
 40
0.000000
 41
0.000000
 39
0.000000
  0
VERTEX
  8
PG_SOLDERMASK_TOP
 10
63.500000
 20
50.225000
 40
0.100000
 41
0.100000
 42
0.000000
  0
VERTEX
  8
PG_SOLDERMASK_TOP
 10
63.500000
 20
50.500000
 40
0.100000
 41
0.100000
 42
0.000000
  0
SEQEND
  0
POLYLINE
  8
PG_SOLDERMASK_TOP
 66
1
 70
0
 40
0.000000
 41
0.000000
 39
0.000000
  0
VERTEX
  8
PG_SOLDERMASK_TOP
 10
63.500000
 20
50.500000
 40
0.100000
 41
0.100000
 42
0.000000
  0
VERTEX
  8
PG_SOLDERMASK_TOP
 10
63.775000
 20
50.500000
 40
0.100000
 41
0.100000
 42
0.000000
  0
SEQEND
  0
POLYLINE
  8
PG_SOLDERMASK_TOP
 66
1
 70
1
 40
0.000000
 41
0.000000
 39
0.000000
  0
VERTEX
  8
PG_SOLDERMASK_TOP
 10
67.500000
 20
49.000000
 40
0.000000
 41
0.000000
 42
1.000000
  0
VERTEX
  8
PG_SOLDERMASK_TOP
 10
67.000000
 20
49.000000
 40
0.000000
 41
0.000000
 42
1.000000
  0
SEQEND
  0
POLYLINE
  8
PG_SOLDERMASK_TOP
 66
1
 70
1
 40
0.000000
 41
0.000000
 39
0.000000
  0
VERTEX
  8
PG_SOLDERMASK_TOP
 10
63.000000
 20
49.000000
 40
0.000000
 41
0.000000
 42
1.000000
  0
VERTEX
  8
PG_SOLDERMASK_TOP
 10
62.500000
 20
49.000000
 40
0.000000
 41
0.000000
 42
1.000000
  0
SEQEND
  0
TEXT
  8
RD_SILKSCREEN_TOP
 10
61.480000
 20
51.710000
 11
0.000000
 21
0.000000
 40
0.600000
 41
1.083333
 50
0.000000
  7
STANDARD
 71
0
 72
0
  1
D07
 73
0
  0
POLYLINE
  8
PIN_TOP
 66
1
 70
1
 40
0.000000
 41
0.000000
 39
0.000000
  0
VERTEX
  8
PIN_TOP
 10
49.760000
 20
49.750000
 40
0.000000
 41
0.000000
 42
0.000000
  0
VERTEX
  8
PIN_TOP
 10
49.760000
 20
48.250000
 40
0.000000
 41
0.000000
 42
0.000000
  0
VERTEX
  8
PIN_TOP
 10
49.200000
 20
48.250000
 40
0.000000
 41
0.000000
 42
0.000000
  0
VERTEX
  8
PIN_TOP
 10
49.200000
 20
49.750000
 40
0.000000
 41
0.000000
 42
0.000000
  0
SEQEND
  0
POLYLINE
  8
PIN_SOLDERMASK_TOP
 66
1
 70
1
 40
0.000000
 41
0.000000
 39
0.000000
  0
VERTEX
  8
PIN_SOLDERMASK_TOP
 10
49.760000
 20
49.750000
 40
0.000000
 41
0.000000
 42
0.000000
  0
VERTEX
  8
PIN_SOLDERMASK_TOP
 10
49.760000
 20
48.250000
 40
0.000000
 41
0.000000
 42
0.000000
  0
VERTEX
  8
PIN_SOLDERMASK_TOP
 10
49.200000
 20
48.250000
 40
0.000000
 41
0.000000
 42
0.000000
  0
VERTEX
  8
PIN_SOLDERMASK_TOP
 10
49.200000
 20
49.750000
 40
0.000000
 41
0.000000
 42
0.000000
  0
SEQEND
  0
POLYLINE
  8
PIN_TOP
 66
1
 70
1
 40
0.000000
 41
0.000000
 39
0.000000
  0
VERTEX
  8
PIN_TOP
 10
48.800000
 20
49.750000
 40
0.000000
 41
0.000000
 42
0.000000
  0
VERTEX
  8
PIN_TOP
 10
48.800000
 20
48.250000
 40
0.000000
 41
0.000000
 42
0.000000
  0
VERTEX
  8
PIN_TOP
 10
48.240000
 20
48.250000
 40
0.000000
 41
0.000000
 42
0.000000
  0
VERTEX
  8
PIN_TOP
 10
48.240000
 20
49.750000
 40
0.000000
 41
0.000000
 42
0.000000
  0
SEQEND
  0
POLYLINE
  8
PIN_SOLDERMASK_TOP
 66
1
 70
1
 40
0.000000
 41
0.000000
 39
0.000000
  0
VERTEX
  8
PIN_SOLDERMASK_TOP
 10
48.800000
 20
49.750000
 40
0.000000
 41
0.000000
 42
0.000000
  0
VERTEX
  8
PIN_SOLDERMASK_TOP
 10
48.800000
 20
48.250000
 40
0.000000
 41
0.000000
 42
0.000000
  0
VERTEX
  8
PIN_SOLDERMASK_TOP
 10
48.240000
 20
48.250000
 40
0.000000
 41
0.000000
 42
0.000000
  0
VERTEX
  8
PIN_SOLDERMASK_TOP
 10
48.240000
 20
49.750000
 40
0.000000
 41
0.000000
 42
0.000000
  0
SEQEND
  0
POLYLINE
  8
PG_SOLDERMASK_TOP
 66
1
 70
0
 40
0.000000
 41
0.000000
 39
0.000000
  0
VERTEX
  8
PG_SOLDERMASK_TOP
 10
50.700200
 20
47.499800
 40
0.100000
 41
0.100000
 42
0.000000
  0
VERTEX
  8
PG_SOLDERMASK_TOP
 10
50.300200
 20
47.499800
 40
0.100000
 41
0.100000
 42
0.000000
  0
SEQEND
  0
POLYLINE
  8
PG_SOLDERMASK_TOP
 66
1
 70
0
 40
0.000000
 41
0.000000
 39
0.000000
  0
VERTEX
  8
PG_SOLDERMASK_TOP
 10
50.500200
 20
47.699800
 40
0.100000
 41
0.100000
 42
0.000000
  0
VERTEX
  8
PG_SOLDERMASK_TOP
 10
50.500200
 20
47.299800
 40
0.100000
 41
0.100000
 42
0.000000
  0
SEQEND
  0
POLYLINE
  8
PG_SOLDERMASK_TOP
 66
1
 70
0
 40
0.000000
 41
0.000000
 39
0.000000
  0
VERTEX
  8
PG_SOLDERMASK_TOP
 10
50.700200
 20
47.499800
 40
0.100000
 41
0.100000
 42
0.000000
  0
VERTEX
  8
PG_SOLDERMASK_TOP
 10
50.300200
 20
47.499800
 40
0.100000
 41
0.100000
 42
0.000000
  0
SEQEND
  0
POLYLINE
  8
PG_SOLDERMASK_TOP
 66
1
 70
0
 40
0.000000
 41
0.000000
 39
0.000000
  0
VERTEX
  8
PG_SOLDERMASK_TOP
 10
50.500200
 20
47.699800
 40
0.100000
 41
0.100000
 42
0.000000
  0
VERTEX
  8
PG_SOLDERMASK_TOP
 10
50.500200
 20
47.299800
 40
0.100000
 41
0.100000
 42
0.000000
  0
SEQEND
  0
POLYLINE
  8
PG_SOLDERMASK_TOP
 66
1
 70
0
 40
0.000000
 41
0.000000
 39
0.000000
  0
VERTEX
  8
PG_SOLDERMASK_TOP
 10
47.500000
 20
50.225000
 40
0.100000
 41
0.100000
 42
0.000000
  0
VERTEX
  8
PG_SOLDERMASK_TOP
 10
47.500000
 20
50.500000
 40
0.100000
 41
0.100000
 42
0.000000
  0
SEQEND
  0
POLYLINE
  8
PG_SOLDERMASK_TOP
 66
1
 70
0
 40
0.000000
 41
0.000000
 39
0.000000
  0
VERTEX
  8
PG_SOLDERMASK_TOP
 10
47.500000
 20
50.500000
 40
0.100000
 41
0.100000
 42
0.000000
  0
VERTEX
  8
PG_SOLDERMASK_TOP
 10
47.775000
 20
50.500000
 40
0.100000
 41
0.100000
 42
0.000000
  0
SEQEND
  0
POLYLINE
  8
PG_SOLDERMASK_TOP
 66
1
 70
1
 40
0.000000
 41
0.000000
 39
0.000000
  0
VERTEX
  8
PG_SOLDERMASK_TOP
 10
51.500000
 20
49.000000
 40
0.000000
 41
0.000000
 42
1.000000
  0
VERTEX
  8
PG_SOLDERMASK_TOP
 10
51.000000
 20
49.000000
 40
0.000000
 41
0.000000
 42
1.000000
  0
SEQEND
  0
POLYLINE
  8
PG_SOLDERMASK_TOP
 66
1
 70
1
 40
0.000000
 41
0.000000
 39
0.000000
  0
VERTEX
  8
PG_SOLDERMASK_TOP
 10
47.000000
 20
49.000000
 40
0.000000
 41
0.000000
 42
1.000000
  0
VERTEX
  8
PG_SOLDERMASK_TOP
 10
46.500000
 20
49.000000
 40
0.000000
 41
0.000000
 42
1.000000
  0
SEQEND
  0
TEXT
  8
RD_SILKSCREEN_TOP
 10
45.480000
 20
51.710000
 11
0.000000
 21
0.000000
 40
0.600000
 41
1.083333
 50
0.000000
  7
STANDARD
 71
0
 72
0
  1
D08
 73
0
  0
POLYLINE
  8
PIN_TOP
 66
1
 70
1
 40
0.000000
 41
0.000000
 39
0.000000
  0
VERTEX
  8
PIN_TOP
 10
4.240000
 20
20.250000
 40
0.000000
 41
0.000000
 42
0.000000
  0
VERTEX
  8
PIN_TOP
 10
4.240000
 20
21.750000
 40
0.000000
 41
0.000000
 42
0.000000
  0
VERTEX
  8
PIN_TOP
 10
4.800000
 20
21.750000
 40
0.000000
 41
0.000000
 42
0.000000
  0
VERTEX
  8
PIN_TOP
 10
4.800000
 20
20.250000
 40
0.000000
 41
0.000000
 42
0.000000
  0
SEQEND
  0
POLYLINE
  8
PIN_SOLDERMASK_TOP
 66
1
 70
1
 40
0.000000
 41
0.000000
 39
0.000000
  0
VERTEX
  8
PIN_SOLDERMASK_TOP
 10
4.240000
 20
20.250000
 40
0.000000
 41
0.000000
 42
0.000000
  0
VERTEX
  8
PIN_SOLDERMASK_TOP
 10
4.240000
 20
21.750000
 40
0.000000
 41
0.000000
 42
0.000000
  0
VERTEX
  8
PIN_SOLDERMASK_TOP
 10
4.800000
 20
21.750000
 40
0.000000
 41
0.000000
 42
0.000000
  0
VERTEX
  8
PIN_SOLDERMASK_TOP
 10
4.800000
 20
20.250000
 40
0.000000
 41
0.000000
 42
0.000000
  0
SEQEND
  0
POLYLINE
  8
PIN_TOP
 66
1
 70
1
 40
0.000000
 41
0.000000
 39
0.000000
  0
VERTEX
  8
PIN_TOP
 10
5.200000
 20
20.250000
 40
0.000000
 41
0.000000
 42
0.000000
  0
VERTEX
  8
PIN_TOP
 10
5.200000
 20
21.750000
 40
0.000000
 41
0.000000
 42
0.000000
  0
VERTEX
  8
PIN_TOP
 10
5.760000
 20
21.750000
 40
0.000000
 41
0.000000
 42
0.000000
  0
VERTEX
  8
PIN_TOP
 10
5.760000
 20
20.250000
 40
0.000000
 41
0.000000
 42
0.000000
  0
SEQEND
  0
POLYLINE
  8
PIN_SOLDERMASK_TOP
 66
1
 70
1
 40
0.000000
 41
0.000000
 39
0.000000
  0
VERTEX
  8
PIN_SOLDERMASK_TOP
 10
5.200000
 20
20.250000
 40
0.000000
 41
0.000000
 42
0.000000
  0
VERTEX
  8
PIN_SOLDERMASK_TOP
 10
5.200000
 20
21.750000
 40
0.000000
 41
0.000000
 42
0.000000
  0
VERTEX
  8
PIN_SOLDERMASK_TOP
 10
5.760000
 20
21.750000
 40
0.000000
 41
0.000000
 42
0.000000
  0
VERTEX
  8
PIN_SOLDERMASK_TOP
 10
5.760000
 20
20.250000
 40
0.000000
 41
0.000000
 42
0.000000
  0
SEQEND
  0
POLYLINE
  8
PG_SOLDERMASK_TOP
 66
1
 70
0
 40
0.000000
 41
0.000000
 39
0.000000
  0
VERTEX
  8
PG_SOLDERMASK_TOP
 10
3.299800
 20
22.500200
 40
0.100000
 41
0.100000
 42
0.000000
  0
VERTEX
  8
PG_SOLDERMASK_TOP
 10
3.699800
 20
22.500200
 40
0.100000
 41
0.100000
 42
0.000000
  0
SEQEND
  0
POLYLINE
  8
PG_SOLDERMASK_TOP
 66
1
 70
0
 40
0.000000
 41
0.000000
 39
0.000000
  0
VERTEX
  8
PG_SOLDERMASK_TOP
 10
3.499800
 20
22.300200
 40
0.100000
 41
0.100000
 42
0.000000
  0
VERTEX
  8
PG_SOLDERMASK_TOP
 10
3.499800
 20
22.700200
 40
0.100000
 41
0.100000
 42
0.000000
  0
SEQEND
  0
POLYLINE
  8
PG_SOLDERMASK_TOP
 66
1
 70
0
 40
0.000000
 41
0.000000
 39
0.000000
  0
VERTEX
  8
PG_SOLDERMASK_TOP
 10
3.299800
 20
22.500200
 40
0.100000
 41
0.100000
 42
0.000000
  0
VERTEX
  8
PG_SOLDERMASK_TOP
 10
3.699800
 20
22.500200
 40
0.100000
 41
0.100000
 42
0.000000
  0
SEQEND
  0
POLYLINE
  8
PG_SOLDERMASK_TOP
 66
1
 70
0
 40
0.000000
 41
0.000000
 39
0.000000
  0
VERTEX
  8
PG_SOLDERMASK_TOP
 10
3.499800
 20
22.300200
 40
0.100000
 41
0.100000
 42
0.000000
  0
VERTEX
  8
PG_SOLDERMASK_TOP
 10
3.499800
 20
22.700200
 40
0.100000
 41
0.100000
 42
0.000000
  0
SEQEND
  0
POLYLINE
  8
PG_SOLDERMASK_TOP
 66
1
 70
0
 40
0.000000
 41
0.000000
 39
0.000000
  0
VERTEX
  8
PG_SOLDERMASK_TOP
 10
6.500000
 20
19.775000
 40
0.100000
 41
0.100000
 42
0.000000
  0
VERTEX
  8
PG_SOLDERMASK_TOP
 10
6.500000
 20
19.500000
 40
0.100000
 41
0.100000
 42
0.000000
  0
SEQEND
  0
POLYLINE
  8
PG_SOLDERMASK_TOP
 66
1
 70
0
 40
0.000000
 41
0.000000
 39
0.000000
  0
VERTEX
  8
PG_SOLDERMASK_TOP
 10
6.500000
 20
19.500000
 40
0.100000
 41
0.100000
 42
0.000000
  0
VERTEX
  8
PG_SOLDERMASK_TOP
 10
6.225000
 20
19.500000
 40
0.100000
 41
0.100000
 42
0.000000
  0
SEQEND
  0
POLYLINE
  8
PG_SOLDERMASK_TOP
 66
1
 70
1
 40
0.000000
 41
0.000000
 39
0.000000
  0
VERTEX
  8
PG_SOLDERMASK_TOP
 10
3.000000
 20
21.000000
 40
0.000000
 41
0.000000
 42
1.000000
  0
VERTEX
  8
PG_SOLDERMASK_TOP
 10
2.500000
 20
21.000000
 40
0.000000
 41
0.000000
 42
1.000000
  0
SEQEND
  0
POLYLINE
  8
PG_SOLDERMASK_TOP
 66
1
 70
1
 40
0.000000
 41
0.000000
 39
0.000000
  0
VERTEX
  8
PG_SOLDERMASK_TOP
 10
7.500000
 20
21.000000
 40
0.000000
 41
0.000000
 42
1.000000
  0
VERTEX
  8
PG_SOLDERMASK_TOP
 10
7.000000
 20
21.000000
 40
0.000000
 41
0.000000
 42
1.000000
  0
SEQEND
  0
TEXT
  8
RD_SILKSCREEN_TOP
 10
6.270000
 20
22.790000
 11
0.000000
 21
0.000000
 40
0.600000
 41
1.083333
 50
0.000000
  7
STANDARD
 71
0
 72
0
  1
D09
 73
0
  0
POLYLINE
  8
PIN_TOP
 66
1
 70
1
 40
0.000000
 41
0.000000
 39
0.000000
  0
VERTEX
  8
PIN_TOP
 10
20.240000
 20
20.250000
 40
0.000000
 41
0.000000
 42
0.000000
  0
VERTEX
  8
PIN_TOP
 10
20.240000
 20
21.750000
 40
0.000000
 41
0.000000
 42
0.000000
  0
VERTEX
  8
PIN_TOP
 10
20.800000
 20
21.750000
 40
0.000000
 41
0.000000
 42
0.000000
  0
VERTEX
  8
PIN_TOP
 10
20.800000
 20
20.250000
 40
0.000000
 41
0.000000
 42
0.000000
  0
SEQEND
  0
POLYLINE
  8
PIN_SOLDERMASK_TOP
 66
1
 70
1
 40
0.000000
 41
0.000000
 39
0.000000
  0
VERTEX
  8
PIN_SOLDERMASK_TOP
 10
20.240000
 20
20.250000
 40
0.000000
 41
0.000000
 42
0.000000
  0
VERTEX
  8
PIN_SOLDERMASK_TOP
 10
20.240000
 20
21.750000
 40
0.000000
 41
0.000000
 42
0.000000
  0
VERTEX
  8
PIN_SOLDERMASK_TOP
 10
20.800000
 20
21.750000
 40
0.000000
 41
0.000000
 42
0.000000
  0
VERTEX
  8
PIN_SOLDERMASK_TOP
 10
20.800000
 20
20.250000
 40
0.000000
 41
0.000000
 42
0.000000
  0
SEQEND
  0
POLYLINE
  8
PIN_TOP
 66
1
 70
1
 40
0.000000
 41
0.000000
 39
0.000000
  0
VERTEX
  8
PIN_TOP
 10
21.200000
 20
20.250000
 40
0.000000
 41
0.000000
 42
0.000000
  0
VERTEX
  8
PIN_TOP
 10
21.200000
 20
21.750000
 40
0.000000
 41
0.000000
 42
0.000000
  0
VERTEX
  8
PIN_TOP
 10
21.760000
 20
21.750000
 40
0.000000
 41
0.000000
 42
0.000000
  0
VERTEX
  8
PIN_TOP
 10
21.760000
 20
20.250000
 40
0.000000
 41
0.000000
 42
0.000000
  0
SEQEND
  0
POLYLINE
  8
PIN_SOLDERMASK_TOP
 66
1
 70
1
 40
0.000000
 41
0.000000
 39
0.000000
  0
VERTEX
  8
PIN_SOLDERMASK_TOP
 10
21.200000
 20
20.250000
 40
0.000000
 41
0.000000
 42
0.000000
  0
VERTEX
  8
PIN_SOLDERMASK_TOP
 10
21.200000
 20
21.750000
 40
0.000000
 41
0.000000
 42
0.000000
  0
VERTEX
  8
PIN_SOLDERMASK_TOP
 10
21.760000
 20
21.750000
 40
0.000000
 41
0.000000
 42
0.000000
  0
VERTEX
  8
PIN_SOLDERMASK_TOP
 10
21.760000
 20
20.250000
 40
0.000000
 41
0.000000
 42
0.000000
  0
SEQEND
  0
POLYLINE
  8
PG_SOLDERMASK_TOP
 66
1
 70
0
 40
0.000000
 41
0.000000
 39
0.000000
  0
VERTEX
  8
PG_SOLDERMASK_TOP
 10
19.299800
 20
22.500200
 40
0.100000
 41
0.100000
 42
0.000000
  0
VERTEX
  8
PG_SOLDERMASK_TOP
 10
19.699800
 20
22.500200
 40
0.100000
 41
0.100000
 42
0.000000
  0
SEQEND
  0
POLYLINE
  8
PG_SOLDERMASK_TOP
 66
1
 70
0
 40
0.000000
 41
0.000000
 39
0.000000
  0
VERTEX
  8
PG_SOLDERMASK_TOP
 10
19.499800
 20
22.300200
 40
0.100000
 41
0.100000
 42
0.000000
  0
VERTEX
  8
PG_SOLDERMASK_TOP
 10
19.499800
 20
22.700200
 40
0.100000
 41
0.100000
 42
0.000000
  0
SEQEND
  0
POLYLINE
  8
PG_SOLDERMASK_TOP
 66
1
 70
0
 40
0.000000
 41
0.000000
 39
0.000000
  0
VERTEX
  8
PG_SOLDERMASK_TOP
 10
19.299800
 20
22.500200
 40
0.100000
 41
0.100000
 42
0.000000
  0
VERTEX
  8
PG_SOLDERMASK_TOP
 10
19.699800
 20
22.500200
 40
0.100000
 41
0.100000
 42
0.000000
  0
SEQEND
  0
POLYLINE
  8
PG_SOLDERMASK_TOP
 66
1
 70
0
 40
0.000000
 41
0.000000
 39
0.000000
  0
VERTEX
  8
PG_SOLDERMASK_TOP
 10
19.499800
 20
22.300200
 40
0.100000
 41
0.100000
 42
0.000000
  0
VERTEX
  8
PG_SOLDERMASK_TOP
 10
19.499800
 20
22.700200
 40
0.100000
 41
0.100000
 42
0.000000
  0
SEQEND
  0
POLYLINE
  8
PG_SOLDERMASK_TOP
 66
1
 70
0
 40
0.000000
 41
0.000000
 39
0.000000
  0
VERTEX
  8
PG_SOLDERMASK_TOP
 10
22.500000
 20
19.775000
 40
0.100000
 41
0.100000
 42
0.000000
  0
VERTEX
  8
PG_SOLDERMASK_TOP
 10
22.500000
 20
19.500000
 40
0.100000
 41
0.100000
 42
0.000000
  0
SEQEND
  0
POLYLINE
  8
PG_SOLDERMASK_TOP
 66
1
 70
0
 40
0.000000
 41
0.000000
 39
0.000000
  0
VERTEX
  8
PG_SOLDERMASK_TOP
 10
22.500000
 20
19.500000
 40
0.100000
 41
0.100000
 42
0.000000
  0
VERTEX
  8
PG_SOLDERMASK_TOP
 10
22.225000
 20
19.500000
 40
0.100000
 41
0.100000
 42
0.000000
  0
SEQEND
  0
POLYLINE
  8
PG_SOLDERMASK_TOP
 66
1
 70
1
 40
0.000000
 41
0.000000
 39
0.000000
  0
VERTEX
  8
PG_SOLDERMASK_TOP
 10
19.000000
 20
21.000000
 40
0.000000
 41
0.000000
 42
1.000000
  0
VERTEX
  8
PG_SOLDERMASK_TOP
 10
18.500000
 20
21.000000
 40
0.000000
 41
0.000000
 42
1.000000
  0
SEQEND
  0
POLYLINE
  8
PG_SOLDERMASK_TOP
 66
1
 70
1
 40
0.000000
 41
0.000000
 39
0.000000
  0
VERTEX
  8
PG_SOLDERMASK_TOP
 10
23.500000
 20
21.000000
 40
0.000000
 41
0.000000
 42
1.000000
  0
VERTEX
  8
PG_SOLDERMASK_TOP
 10
23.000000
 20
21.000000
 40
0.000000
 41
0.000000
 42
1.000000
  0
SEQEND
  0
TEXT
  8
RD_SILKSCREEN_TOP
 10
22.270000
 20
22.790000
 11
0.000000
 21
0.000000
 40
0.600000
 41
1.083333
 50
0.000000
  7
STANDARD
 71
0
 72
0
  1
D10
 73
0
  0
POLYLINE
  8
PIN_TOP
 66
1
 70
1
 40
0.000000
 41
0.000000
 39
0.000000
  0
VERTEX
  8
PIN_TOP
 10
4.240000
 20
4.250000
 40
0.000000
 41
0.000000
 42
0.000000
  0
VERTEX
  8
PIN_TOP
 10
4.240000
 20
5.750000
 40
0.000000
 41
0.000000
 42
0.000000
  0
VERTEX
  8
PIN_TOP
 10
4.800000
 20
5.750000
 40
0.000000
 41
0.000000
 42
0.000000
  0
VERTEX
  8
PIN_TOP
 10
4.800000
 20
4.250000
 40
0.000000
 41
0.000000
 42
0.000000
  0
SEQEND
  0
POLYLINE
  8
PIN_SOLDERMASK_TOP
 66
1
 70
1
 40
0.000000
 41
0.000000
 39
0.000000
  0
VERTEX
  8
PIN_SOLDERMASK_TOP
 10
4.240000
 20
4.250000
 40
0.000000
 41
0.000000
 42
0.000000
  0
VERTEX
  8
PIN_SOLDERMASK_TOP
 10
4.240000
 20
5.750000
 40
0.000000
 41
0.000000
 42
0.000000
  0
VERTEX
  8
PIN_SOLDERMASK_TOP
 10
4.800000
 20
5.750000
 40
0.000000
 41
0.000000
 42
0.000000
  0
VERTEX
  8
PIN_SOLDERMASK_TOP
 10
4.800000
 20
4.250000
 40
0.000000
 41
0.000000
 42
0.000000
  0
SEQEND
  0
POLYLINE
  8
PIN_TOP
 66
1
 70
1
 40
0.000000
 41
0.000000
 39
0.000000
  0
VERTEX
  8
PIN_TOP
 10
5.200000
 20
4.250000
 40
0.000000
 41
0.000000
 42
0.000000
  0
VERTEX
  8
PIN_TOP
 10
5.200000
 20
5.750000
 40
0.000000
 41
0.000000
 42
0.000000
  0
VERTEX
  8
PIN_TOP
 10
5.760000
 20
5.750000
 40
0.000000
 41
0.000000
 42
0.000000
  0
VERTEX
  8
PIN_TOP
 10
5.760000
 20
4.250000
 40
0.000000
 41
0.000000
 42
0.000000
  0
SEQEND
  0
POLYLINE
  8
PIN_SOLDERMASK_TOP
 66
1
 70
1
 40
0.000000
 41
0.000000
 39
0.000000
  0
VERTEX
  8
PIN_SOLDERMASK_TOP
 10
5.200000
 20
4.250000
 40
0.000000
 41
0.000000
 42
0.000000
  0
VERTEX
  8
PIN_SOLDERMASK_TOP
 10
5.200000
 20
5.750000
 40
0.000000
 41
0.000000
 42
0.000000
  0
VERTEX
  8
PIN_SOLDERMASK_TOP
 10
5.760000
 20
5.750000
 40
0.000000
 41
0.000000
 42
0.000000
  0
VERTEX
  8
PIN_SOLDERMASK_TOP
 10
5.760000
 20
4.250000
 40
0.000000
 41
0.000000
 42
0.000000
  0
SEQEND
  0
POLYLINE
  8
PG_SOLDERMASK_TOP
 66
1
 70
0
 40
0.000000
 41
0.000000
 39
0.000000
  0
VERTEX
  8
PG_SOLDERMASK_TOP
 10
3.299800
 20
6.500200
 40
0.100000
 41
0.100000
 42
0.000000
  0
VERTEX
  8
PG_SOLDERMASK_TOP
 10
3.699800
 20
6.500200
 40
0.100000
 41
0.100000
 42
0.000000
  0
SEQEND
  0
POLYLINE
  8
PG_SOLDERMASK_TOP
 66
1
 70
0
 40
0.000000
 41
0.000000
 39
0.000000
  0
VERTEX
  8
PG_SOLDERMASK_TOP
 10
3.499800
 20
6.300200
 40
0.100000
 41
0.100000
 42
0.000000
  0
VERTEX
  8
PG_SOLDERMASK_TOP
 10
3.499800
 20
6.700200
 40
0.100000
 41
0.100000
 42
0.000000
  0
SEQEND
  0
POLYLINE
  8
PG_SOLDERMASK_TOP
 66
1
 70
0
 40
0.000000
 41
0.000000
 39
0.000000
  0
VERTEX
  8
PG_SOLDERMASK_TOP
 10
3.299800
 20
6.500200
 40
0.100000
 41
0.100000
 42
0.000000
  0
VERTEX
  8
PG_SOLDERMASK_TOP
 10
3.699800
 20
6.500200
 40
0.100000
 41
0.100000
 42
0.000000
  0
SEQEND
  0
POLYLINE
  8
PG_SOLDERMASK_TOP
 66
1
 70
0
 40
0.000000
 41
0.000000
 39
0.000000
  0
VERTEX
  8
PG_SOLDERMASK_TOP
 10
3.499800
 20
6.300200
 40
0.100000
 41
0.100000
 42
0.000000
  0
VERTEX
  8
PG_SOLDERMASK_TOP
 10
3.499800
 20
6.700200
 40
0.100000
 41
0.100000
 42
0.000000
  0
SEQEND
  0
POLYLINE
  8
PG_SOLDERMASK_TOP
 66
1
 70
0
 40
0.000000
 41
0.000000
 39
0.000000
  0
VERTEX
  8
PG_SOLDERMASK_TOP
 10
6.500000
 20
3.775000
 40
0.100000
 41
0.100000
 42
0.000000
  0
VERTEX
  8
PG_SOLDERMASK_TOP
 10
6.500000
 20
3.500000
 40
0.100000
 41
0.100000
 42
0.000000
  0
SEQEND
  0
POLYLINE
  8
PG_SOLDERMASK_TOP
 66
1
 70
0
 40
0.000000
 41
0.000000
 39
0.000000
  0
VERTEX
  8
PG_SOLDERMASK_TOP
 10
6.500000
 20
3.500000
 40
0.100000
 41
0.100000
 42
0.000000
  0
VERTEX
  8
PG_SOLDERMASK_TOP
 10
6.225000
 20
3.500000
 40
0.100000
 41
0.100000
 42
0.000000
  0
SEQEND
  0
POLYLINE
  8
PG_SOLDERMASK_TOP
 66
1
 70
1
 40
0.000000
 41
0.000000
 39
0.000000
  0
VERTEX
  8
PG_SOLDERMASK_TOP
 10
3.000000
 20
5.000000
 40
0.000000
 41
0.000000
 42
1.000000
  0
VERTEX
  8
PG_SOLDERMASK_TOP
 10
2.500000
 20
5.000000
 40
0.000000
 41
0.000000
 42
1.000000
  0
SEQEND
  0
POLYLINE
  8
PG_SOLDERMASK_TOP
 66
1
 70
1
 40
0.000000
 41
0.000000
 39
0.000000
  0
VERTEX
  8
PG_SOLDERMASK_TOP
 10
7.500000
 20
5.000000
 40
0.000000
 41
0.000000
 42
1.000000
  0
VERTEX
  8
PG_SOLDERMASK_TOP
 10
7.000000
 20
5.000000
 40
0.000000
 41
0.000000
 42
1.000000
  0
SEQEND
  0
TEXT
  8
RD_SILKSCREEN_TOP
 10
6.270000
 20
6.790000
 11
0.000000
 21
0.000000
 40
0.600000
 41
1.083333
 50
0.000000
  7
STANDARD
 71
0
 72
0
  1
D11
 73
0
  0
POLYLINE
  8
PIN_TOP
 66
1
 70
1
 40
0.000000
 41
0.000000
 39
0.000000
  0
VERTEX
  8
PIN_TOP
 10
20.240000
 20
4.250000
 40
0.000000
 41
0.000000
 42
0.000000
  0
VERTEX
  8
PIN_TOP
 10
20.240000
 20
5.750000
 40
0.000000
 41
0.000000
 42
0.000000
  0
VERTEX
  8
PIN_TOP
 10
20.800000
 20
5.750000
 40
0.000000
 41
0.000000
 42
0.000000
  0
VERTEX
  8
PIN_TOP
 10
20.800000
 20
4.250000
 40
0.000000
 41
0.000000
 42
0.000000
  0
SEQEND
  0
POLYLINE
  8
PIN_SOLDERMASK_TOP
 66
1
 70
1
 40
0.000000
 41
0.000000
 39
0.000000
  0
VERTEX
  8
PIN_SOLDERMASK_TOP
 10
20.240000
 20
4.250000
 40
0.000000
 41
0.000000
 42
0.000000
  0
VERTEX
  8
PIN_SOLDERMASK_TOP
 10
20.240000
 20
5.750000
 40
0.000000
 41
0.000000
 42
0.000000
  0
VERTEX
  8
PIN_SOLDERMASK_TOP
 10
20.800000
 20
5.750000
 40
0.000000
 41
0.000000
 42
0.000000
  0
VERTEX
  8
PIN_SOLDERMASK_TOP
 10
20.800000
 20
4.250000
 40
0.000000
 41
0.000000
 42
0.000000
  0
SEQEND
  0
POLYLINE
  8
PIN_TOP
 66
1
 70
1
 40
0.000000
 41
0.000000
 39
0.000000
  0
VERTEX
  8
PIN_TOP
 10
21.200000
 20
4.250000
 40
0.000000
 41
0.000000
 42
0.000000
  0
VERTEX
  8
PIN_TOP
 10
21.200000
 20
5.750000
 40
0.000000
 41
0.000000
 42
0.000000
  0
VERTEX
  8
PIN_TOP
 10
21.760000
 20
5.750000
 40
0.000000
 41
0.000000
 42
0.000000
  0
VERTEX
  8
PIN_TOP
 10
21.760000
 20
4.250000
 40
0.000000
 41
0.000000
 42
0.000000
  0
SEQEND
  0
POLYLINE
  8
PIN_SOLDERMASK_TOP
 66
1
 70
1
 40
0.000000
 41
0.000000
 39
0.000000
  0
VERTEX
  8
PIN_SOLDERMASK_TOP
 10
21.200000
 20
4.250000
 40
0.000000
 41
0.000000
 42
0.000000
  0
VERTEX
  8
PIN_SOLDERMASK_TOP
 10
21.200000
 20
5.750000
 40
0.000000
 41
0.000000
 42
0.000000
  0
VERTEX
  8
PIN_SOLDERMASK_TOP
 10
21.760000
 20
5.750000
 40
0.000000
 41
0.000000
 42
0.000000
  0
VERTEX
  8
PIN_SOLDERMASK_TOP
 10
21.760000
 20
4.250000
 40
0.000000
 41
0.000000
 42
0.000000
  0
SEQEND
  0
POLYLINE
  8
PG_SOLDERMASK_TOP
 66
1
 70
0
 40
0.000000
 41
0.000000
 39
0.000000
  0
VERTEX
  8
PG_SOLDERMASK_TOP
 10
19.299800
 20
6.500200
 40
0.100000
 41
0.100000
 42
0.000000
  0
VERTEX
  8
PG_SOLDERMASK_TOP
 10
19.699800
 20
6.500200
 40
0.100000
 41
0.100000
 42
0.000000
  0
SEQEND
  0
POLYLINE
  8
PG_SOLDERMASK_TOP
 66
1
 70
0
 40
0.000000
 41
0.000000
 39
0.000000
  0
VERTEX
  8
PG_SOLDERMASK_TOP
 10
19.499800
 20
6.300200
 40
0.100000
 41
0.100000
 42
0.000000
  0
VERTEX
  8
PG_SOLDERMASK_TOP
 10
19.499800
 20
6.700200
 40
0.100000
 41
0.100000
 42
0.000000
  0
SEQEND
  0
POLYLINE
  8
PG_SOLDERMASK_TOP
 66
1
 70
0
 40
0.000000
 41
0.000000
 39
0.000000
  0
VERTEX
  8
PG_SOLDERMASK_TOP
 10
19.299800
 20
6.500200
 40
0.100000
 41
0.100000
 42
0.000000
  0
VERTEX
  8
PG_SOLDERMASK_TOP
 10
19.699800
 20
6.500200
 40
0.100000
 41
0.100000
 42
0.000000
  0
SEQEND
  0
POLYLINE
  8
PG_SOLDERMASK_TOP
 66
1
 70
0
 40
0.000000
 41
0.000000
 39
0.000000
  0
VERTEX
  8
PG_SOLDERMASK_TOP
 10
19.499800
 20
6.300200
 40
0.100000
 41
0.100000
 42
0.000000
  0
VERTEX
  8
PG_SOLDERMASK_TOP
 10
19.499800
 20
6.700200
 40
0.100000
 41
0.100000
 42
0.000000
  0
SEQEND
  0
POLYLINE
  8
PG_SOLDERMASK_TOP
 66
1
 70
0
 40
0.000000
 41
0.000000
 39
0.000000
  0
VERTEX
  8
PG_SOLDERMASK_TOP
 10
22.500000
 20
3.775000
 40
0.100000
 41
0.100000
 42
0.000000
  0
VERTEX
  8
PG_SOLDERMASK_TOP
 10
22.500000
 20
3.500000
 40
0.100000
 41
0.100000
 42
0.000000
  0
SEQEND
  0
POLYLINE
  8
PG_SOLDERMASK_TOP
 66
1
 70
0
 40
0.000000
 41
0.000000
 39
0.000000
  0
VERTEX
  8
PG_SOLDERMASK_TOP
 10
22.500000
 20
3.500000
 40
0.100000
 41
0.100000
 42
0.000000
  0
VERTEX
  8
PG_SOLDERMASK_TOP
 10
22.225000
 20
3.500000
 40
0.100000
 41
0.100000
 42
0.000000
  0
SEQEND
  0
POLYLINE
  8
PG_SOLDERMASK_TOP
 66
1
 70
1
 40
0.000000
 41
0.000000
 39
0.000000
  0
VERTEX
  8
PG_SOLDERMASK_TOP
 10
19.000000
 20
5.000000
 40
0.000000
 41
0.000000
 42
1.000000
  0
VERTEX
  8
PG_SOLDERMASK_TOP
 10
18.500000
 20
5.000000
 40
0.000000
 41
0.000000
 42
1.000000
  0
SEQEND
  0
POLYLINE
  8
PG_SOLDERMASK_TOP
 66
1
 70
1
 40
0.000000
 41
0.000000
 39
0.000000
  0
VERTEX
  8
PG_SOLDERMASK_TOP
 10
23.500000
 20
5.000000
 40
0.000000
 41
0.000000
 42
1.000000
  0
VERTEX
  8
PG_SOLDERMASK_TOP
 10
23.000000
 20
5.000000
 40
0.000000
 41
0.000000
 42
1.000000
  0
SEQEND
  0
TEXT
  8
RD_SILKSCREEN_TOP
 10
22.270000
 20
6.790000
 11
0.000000
 21
0.000000
 40
0.600000
 41
1.083333
 50
0.000000
  7
STANDARD
 71
0
 72
0
  1
D12
 73
0
  0
POLYLINE
  8
PIN_TOP
 66
1
 70
1
 40
0.000000
 41
0.000000
 39
0.000000
  0
VERTEX
  8
PIN_TOP
 10
48.240000
 20
4.250000
 40
0.000000
 41
0.000000
 42
0.000000
  0
VERTEX
  8
PIN_TOP
 10
48.240000
 20
5.750000
 40
0.000000
 41
0.000000
 42
0.000000
  0
VERTEX
  8
PIN_TOP
 10
48.800000
 20
5.750000
 40
0.000000
 41
0.000000
 42
0.000000
  0
VERTEX
  8
PIN_TOP
 10
48.800000
 20
4.250000
 40
0.000000
 41
0.000000
 42
0.000000
  0
SEQEND
  0
POLYLINE
  8
PIN_SOLDERMASK_TOP
 66
1
 70
1
 40
0.000000
 41
0.000000
 39
0.000000
  0
VERTEX
  8
PIN_SOLDERMASK_TOP
 10
48.240000
 20
4.250000
 40
0.000000
 41
0.000000
 42
0.000000
  0
VERTEX
  8
PIN_SOLDERMASK_TOP
 10
48.240000
 20
5.750000
 40
0.000000
 41
0.000000
 42
0.000000
  0
VERTEX
  8
PIN_SOLDERMASK_TOP
 10
48.800000
 20
5.750000
 40
0.000000
 41
0.000000
 42
0.000000
  0
VERTEX
  8
PIN_SOLDERMASK_TOP
 10
48.800000
 20
4.250000
 40
0.000000
 41
0.000000
 42
0.000000
  0
SEQEND
  0
POLYLINE
  8
PIN_TOP
 66
1
 70
1
 40
0.000000
 41
0.000000
 39
0.000000
  0
VERTEX
  8
PIN_TOP
 10
49.200000
 20
4.250000
 40
0.000000
 41
0.000000
 42
0.000000
  0
VERTEX
  8
PIN_TOP
 10
49.200000
 20
5.750000
 40
0.000000
 41
0.000000
 42
0.000000
  0
VERTEX
  8
PIN_TOP
 10
49.760000
 20
5.750000
 40
0.000000
 41
0.000000
 42
0.000000
  0
VERTEX
  8
PIN_TOP
 10
49.760000
 20
4.250000
 40
0.000000
 41
0.000000
 42
0.000000
  0
SEQEND
  0
POLYLINE
  8
PIN_SOLDERMASK_TOP
 66
1
 70
1
 40
0.000000
 41
0.000000
 39
0.000000
  0
VERTEX
  8
PIN_SOLDERMASK_TOP
 10
49.200000
 20
4.250000
 40
0.000000
 41
0.000000
 42
0.000000
  0
VERTEX
  8
PIN_SOLDERMASK_TOP
 10
49.200000
 20
5.750000
 40
0.000000
 41
0.000000
 42
0.000000
  0
VERTEX
  8
PIN_SOLDERMASK_TOP
 10
49.760000
 20
5.750000
 40
0.000000
 41
0.000000
 42
0.000000
  0
VERTEX
  8
PIN_SOLDERMASK_TOP
 10
49.760000
 20
4.250000
 40
0.000000
 41
0.000000
 42
0.000000
  0
SEQEND
  0
POLYLINE
  8
PG_SOLDERMASK_TOP
 66
1
 70
0
 40
0.000000
 41
0.000000
 39
0.000000
  0
VERTEX
  8
PG_SOLDERMASK_TOP
 10
47.299800
 20
6.500200
 40
0.100000
 41
0.100000
 42
0.000000
  0
VERTEX
  8
PG_SOLDERMASK_TOP
 10
47.699800
 20
6.500200
 40
0.100000
 41
0.100000
 42
0.000000
  0
SEQEND
  0
POLYLINE
  8
PG_SOLDERMASK_TOP
 66
1
 70
0
 40
0.000000
 41
0.000000
 39
0.000000
  0
VERTEX
  8
PG_SOLDERMASK_TOP
 10
47.499800
 20
6.300200
 40
0.100000
 41
0.100000
 42
0.000000
  0
VERTEX
  8
PG_SOLDERMASK_TOP
 10
47.499800
 20
6.700200
 40
0.100000
 41
0.100000
 42
0.000000
  0
SEQEND
  0
POLYLINE
  8
PG_SOLDERMASK_TOP
 66
1
 70
0
 40
0.000000
 41
0.000000
 39
0.000000
  0
VERTEX
  8
PG_SOLDERMASK_TOP
 10
47.299800
 20
6.500200
 40
0.100000
 41
0.100000
 42
0.000000
  0
VERTEX
  8
PG_SOLDERMASK_TOP
 10
47.699800
 20
6.500200
 40
0.100000
 41
0.100000
 42
0.000000
  0
SEQEND
  0
POLYLINE
  8
PG_SOLDERMASK_TOP
 66
1
 70
0
 40
0.000000
 41
0.000000
 39
0.000000
  0
VERTEX
  8
PG_SOLDERMASK_TOP
 10
47.499800
 20
6.300200
 40
0.100000
 41
0.100000
 42
0.000000
  0
VERTEX
  8
PG_SOLDERMASK_TOP
 10
47.499800
 20
6.700200
 40
0.100000
 41
0.100000
 42
0.000000
  0
SEQEND
  0
POLYLINE
  8
PG_SOLDERMASK_TOP
 66
1
 70
0
 40
0.000000
 41
0.000000
 39
0.000000
  0
VERTEX
  8
PG_SOLDERMASK_TOP
 10
50.500000
 20
3.775000
 40
0.100000
 41
0.100000
 42
0.000000
  0
VERTEX
  8
PG_SOLDERMASK_TOP
 10
50.500000
 20
3.500000
 40
0.100000
 41
0.100000
 42
0.000000
  0
SEQEND
  0
POLYLINE
  8
PG_SOLDERMASK_TOP
 66
1
 70
0
 40
0.000000
 41
0.000000
 39
0.000000
  0
VERTEX
  8
PG_SOLDERMASK_TOP
 10
50.500000
 20
3.500000
 40
0.100000
 41
0.100000
 42
0.000000
  0
VERTEX
  8
PG_SOLDERMASK_TOP
 10
50.225000
 20
3.500000
 40
0.100000
 41
0.100000
 42
0.000000
  0
SEQEND
  0
POLYLINE
  8
PG_SOLDERMASK_TOP
 66
1
 70
1
 40
0.000000
 41
0.000000
 39
0.000000
  0
VERTEX
  8
PG_SOLDERMASK_TOP
 10
47.000000
 20
5.000000
 40
0.000000
 41
0.000000
 42
1.000000
  0
VERTEX
  8
PG_SOLDERMASK_TOP
 10
46.500000
 20
5.000000
 40
0.000000
 41
0.000000
 42
1.000000
  0
SEQEND
  0
POLYLINE
  8
PG_SOLDERMASK_TOP
 66
1
 70
1
 40
0.000000
 41
0.000000
 39
0.000000
  0
VERTEX
  8
PG_SOLDERMASK_TOP
 10
51.500000
 20
5.000000
 40
0.000000
 41
0.000000
 42
1.000000
  0
VERTEX
  8
PG_SOLDERMASK_TOP
 10
51.000000
 20
5.000000
 40
0.000000
 41
0.000000
 42
1.000000
  0
SEQEND
  0
TEXT
  8
RD_SILKSCREEN_TOP
 10
50.270000
 20
6.790000
 11
0.000000
 21
0.000000
 40
0.600000
 41
1.083333
 50
0.000000
  7
STANDARD
 71
0
 72
0
  1
D13
 73
0
  0
POLYLINE
  8
PIN_TOP
 66
1
 70
1
 40
0.000000
 41
0.000000
 39
0.000000
  0
VERTEX
  8
PIN_TOP
 10
64.240000
 20
4.250000
 40
0.000000
 41
0.000000
 42
0.000000
  0
VERTEX
  8
PIN_TOP
 10
64.240000
 20
5.750000
 40
0.000000
 41
0.000000
 42
0.000000
  0
VERTEX
  8
PIN_TOP
 10
64.800000
 20
5.750000
 40
0.000000
 41
0.000000
 42
0.000000
  0
VERTEX
  8
PIN_TOP
 10
64.800000
 20
4.250000
 40
0.000000
 41
0.000000
 42
0.000000
  0
SEQEND
  0
POLYLINE
  8
PIN_SOLDERMASK_TOP
 66
1
 70
1
 40
0.000000
 41
0.000000
 39
0.000000
  0
VERTEX
  8
PIN_SOLDERMASK_TOP
 10
64.240000
 20
4.250000
 40
0.000000
 41
0.000000
 42
0.000000
  0
VERTEX
  8
PIN_SOLDERMASK_TOP
 10
64.240000
 20
5.750000
 40
0.000000
 41
0.000000
 42
0.000000
  0
VERTEX
  8
PIN_SOLDERMASK_TOP
 10
64.800000
 20
5.750000
 40
0.000000
 41
0.000000
 42
0.000000
  0
VERTEX
  8
PIN_SOLDERMASK_TOP
 10
64.800000
 20
4.250000
 40
0.000000
 41
0.000000
 42
0.000000
  0
SEQEND
  0
POLYLINE
  8
PIN_TOP
 66
1
 70
1
 40
0.000000
 41
0.000000
 39
0.000000
  0
VERTEX
  8
PIN_TOP
 10
65.200000
 20
4.250000
 40
0.000000
 41
0.000000
 42
0.000000
  0
VERTEX
  8
PIN_TOP
 10
65.200000
 20
5.750000
 40
0.000000
 41
0.000000
 42
0.000000
  0
VERTEX
  8
PIN_TOP
 10
65.760000
 20
5.750000
 40
0.000000
 41
0.000000
 42
0.000000
  0
VERTEX
  8
PIN_TOP
 10
65.760000
 20
4.250000
 40
0.000000
 41
0.000000
 42
0.000000
  0
SEQEND
  0
POLYLINE
  8
PIN_SOLDERMASK_TOP
 66
1
 70
1
 40
0.000000
 41
0.000000
 39
0.000000
  0
VERTEX
  8
PIN_SOLDERMASK_TOP
 10
65.200000
 20
4.250000
 40
0.000000
 41
0.000000
 42
0.000000
  0
VERTEX
  8
PIN_SOLDERMASK_TOP
 10
65.200000
 20
5.750000
 40
0.000000
 41
0.000000
 42
0.000000
  0
VERTEX
  8
PIN_SOLDERMASK_TOP
 10
65.760000
 20
5.750000
 40
0.000000
 41
0.000000
 42
0.000000
  0
VERTEX
  8
PIN_SOLDERMASK_TOP
 10
65.760000
 20
4.250000
 40
0.000000
 41
0.000000
 42
0.000000
  0
SEQEND
  0
POLYLINE
  8
PG_SOLDERMASK_TOP
 66
1
 70
0
 40
0.000000
 41
0.000000
 39
0.000000
  0
VERTEX
  8
PG_SOLDERMASK_TOP
 10
63.299800
 20
6.500200
 40
0.100000
 41
0.100000
 42
0.000000
  0
VERTEX
  8
PG_SOLDERMASK_TOP
 10
63.699800
 20
6.500200
 40
0.100000
 41
0.100000
 42
0.000000
  0
SEQEND
  0
POLYLINE
  8
PG_SOLDERMASK_TOP
 66
1
 70
0
 40
0.000000
 41
0.000000
 39
0.000000
  0
VERTEX
  8
PG_SOLDERMASK_TOP
 10
63.499800
 20
6.300200
 40
0.100000
 41
0.100000
 42
0.000000
  0
VERTEX
  8
PG_SOLDERMASK_TOP
 10
63.499800
 20
6.700200
 40
0.100000
 41
0.100000
 42
0.000000
  0
SEQEND
  0
POLYLINE
  8
PG_SOLDERMASK_TOP
 66
1
 70
0
 40
0.000000
 41
0.000000
 39
0.000000
  0
VERTEX
  8
PG_SOLDERMASK_TOP
 10
63.299800
 20
6.500200
 40
0.100000
 41
0.100000
 42
0.000000
  0
VERTEX
  8
PG_SOLDERMASK_TOP
 10
63.699800
 20
6.500200
 40
0.100000
 41
0.100000
 42
0.000000
  0
SEQEND
  0
POLYLINE
  8
PG_SOLDERMASK_TOP
 66
1
 70
0
 40
0.000000
 41
0.000000
 39
0.000000
  0
VERTEX
  8
PG_SOLDERMASK_TOP
 10
63.499800
 20
6.300200
 40
0.100000
 41
0.100000
 42
0.000000
  0
VERTEX
  8
PG_SOLDERMASK_TOP
 10
63.499800
 20
6.700200
 40
0.100000
 41
0.100000
 42
0.000000
  0
SEQEND
  0
POLYLINE
  8
PG_SOLDERMASK_TOP
 66
1
 70
0
 40
0.000000
 41
0.000000
 39
0.000000
  0
VERTEX
  8
PG_SOLDERMASK_TOP
 10
66.500000
 20
3.775000
 40
0.100000
 41
0.100000
 42
0.000000
  0
VERTEX
  8
PG_SOLDERMASK_TOP
 10
66.500000
 20
3.500000
 40
0.100000
 41
0.100000
 42
0.000000
  0
SEQEND
  0
POLYLINE
  8
PG_SOLDERMASK_TOP
 66
1
 70
0
 40
0.000000
 41
0.000000
 39
0.000000
  0
VERTEX
  8
PG_SOLDERMASK_TOP
 10
66.500000
 20
3.500000
 40
0.100000
 41
0.100000
 42
0.000000
  0
VERTEX
  8
PG_SOLDERMASK_TOP
 10
66.225000
 20
3.500000
 40
0.100000
 41
0.100000
 42
0.000000
  0
SEQEND
  0
POLYLINE
  8
PG_SOLDERMASK_TOP
 66
1
 70
1
 40
0.000000
 41
0.000000
 39
0.000000
  0
VERTEX
  8
PG_SOLDERMASK_TOP
 10
63.000000
 20
5.000000
 40
0.000000
 41
0.000000
 42
1.000000
  0
VERTEX
  8
PG_SOLDERMASK_TOP
 10
62.500000
 20
5.000000
 40
0.000000
 41
0.000000
 42
1.000000
  0
SEQEND
  0
POLYLINE
  8
PG_SOLDERMASK_TOP
 66
1
 70
1
 40
0.000000
 41
0.000000
 39
0.000000
  0
VERTEX
  8
PG_SOLDERMASK_TOP
 10
67.500000
 20
5.000000
 40
0.000000
 41
0.000000
 42
1.000000
  0
VERTEX
  8
PG_SOLDERMASK_TOP
 10
67.000000
 20
5.000000
 40
0.000000
 41
0.000000
 42
1.000000
  0
SEQEND
  0
TEXT
  8
RD_SILKSCREEN_TOP
 10
66.270000
 20
6.790000
 11
0.000000
 21
0.000000
 40
0.600000
 41
1.083333
 50
0.000000
  7
STANDARD
 71
0
 72
0
  1
D14
 73
0
  0
POLYLINE
  8
PIN_TOP
 66
1
 70
1
 40
0.000000
 41
0.000000
 39
0.000000
  0
VERTEX
  8
PIN_TOP
 10
65.760000
 20
21.750000
 40
0.000000
 41
0.000000
 42
0.000000
  0
VERTEX
  8
PIN_TOP
 10
65.760000
 20
20.250000
 40
0.000000
 41
0.000000
 42
0.000000
  0
VERTEX
  8
PIN_TOP
 10
65.200000
 20
20.250000
 40
0.000000
 41
0.000000
 42
0.000000
  0
VERTEX
  8
PIN_TOP
 10
65.200000
 20
21.750000
 40
0.000000
 41
0.000000
 42
0.000000
  0
SEQEND
  0
POLYLINE
  8
PIN_SOLDERMASK_TOP
 66
1
 70
1
 40
0.000000
 41
0.000000
 39
0.000000
  0
VERTEX
  8
PIN_SOLDERMASK_TOP
 10
65.760000
 20
21.750000
 40
0.000000
 41
0.000000
 42
0.000000
  0
VERTEX
  8
PIN_SOLDERMASK_TOP
 10
65.760000
 20
20.250000
 40
0.000000
 41
0.000000
 42
0.000000
  0
VERTEX
  8
PIN_SOLDERMASK_TOP
 10
65.200000
 20
20.250000
 40
0.000000
 41
0.000000
 42
0.000000
  0
VERTEX
  8
PIN_SOLDERMASK_TOP
 10
65.200000
 20
21.750000
 40
0.000000
 41
0.000000
 42
0.000000
  0
SEQEND
  0
POLYLINE
  8
PIN_TOP
 66
1
 70
1
 40
0.000000
 41
0.000000
 39
0.000000
  0
VERTEX
  8
PIN_TOP
 10
64.800000
 20
21.750000
 40
0.000000
 41
0.000000
 42
0.000000
  0
VERTEX
  8
PIN_TOP
 10
64.800000
 20
20.250000
 40
0.000000
 41
0.000000
 42
0.000000
  0
VERTEX
  8
PIN_TOP
 10
64.240000
 20
20.250000
 40
0.000000
 41
0.000000
 42
0.000000
  0
VERTEX
  8
PIN_TOP
 10
64.240000
 20
21.750000
 40
0.000000
 41
0.000000
 42
0.000000
  0
SEQEND
  0
POLYLINE
  8
PIN_SOLDERMASK_TOP
 66
1
 70
1
 40
0.000000
 41
0.000000
 39
0.000000
  0
VERTEX
  8
PIN_SOLDERMASK_TOP
 10
64.800000
 20
21.750000
 40
0.000000
 41
0.000000
 42
0.000000
  0
VERTEX
  8
PIN_SOLDERMASK_TOP
 10
64.800000
 20
20.250000
 40
0.000000
 41
0.000000
 42
0.000000
  0
VERTEX
  8
PIN_SOLDERMASK_TOP
 10
64.240000
 20
20.250000
 40
0.000000
 41
0.000000
 42
0.000000
  0
VERTEX
  8
PIN_SOLDERMASK_TOP
 10
64.240000
 20
21.750000
 40
0.000000
 41
0.000000
 42
0.000000
  0
SEQEND
  0
POLYLINE
  8
PG_SOLDERMASK_TOP
 66
1
 70
0
 40
0.000000
 41
0.000000
 39
0.000000
  0
VERTEX
  8
PG_SOLDERMASK_TOP
 10
66.700200
 20
19.499800
 40
0.100000
 41
0.100000
 42
0.000000
  0
VERTEX
  8
PG_SOLDERMASK_TOP
 10
66.300200
 20
19.499800
 40
0.100000
 41
0.100000
 42
0.000000
  0
SEQEND
  0
POLYLINE
  8
PG_SOLDERMASK_TOP
 66
1
 70
0
 40
0.000000
 41
0.000000
 39
0.000000
  0
VERTEX
  8
PG_SOLDERMASK_TOP
 10
66.500200
 20
19.699800
 40
0.100000
 41
0.100000
 42
0.000000
  0
VERTEX
  8
PG_SOLDERMASK_TOP
 10
66.500200
 20
19.299800
 40
0.100000
 41
0.100000
 42
0.000000
  0
SEQEND
  0
POLYLINE
  8
PG_SOLDERMASK_TOP
 66
1
 70
0
 40
0.000000
 41
0.000000
 39
0.000000
  0
VERTEX
  8
PG_SOLDERMASK_TOP
 10
66.700200
 20
19.499800
 40
0.100000
 41
0.100000
 42
0.000000
  0
VERTEX
  8
PG_SOLDERMASK_TOP
 10
66.300200
 20
19.499800
 40
0.100000
 41
0.100000
 42
0.000000
  0
SEQEND
  0
POLYLINE
  8
PG_SOLDERMASK_TOP
 66
1
 70
0
 40
0.000000
 41
0.000000
 39
0.000000
  0
VERTEX
  8
PG_SOLDERMASK_TOP
 10
66.500200
 20
19.699800
 40
0.100000
 41
0.100000
 42
0.000000
  0
VERTEX
  8
PG_SOLDERMASK_TOP
 10
66.500200
 20
19.299800
 40
0.100000
 41
0.100000
 42
0.000000
  0
SEQEND
  0
POLYLINE
  8
PG_SOLDERMASK_TOP
 66
1
 70
0
 40
0.000000
 41
0.000000
 39
0.000000
  0
VERTEX
  8
PG_SOLDERMASK_TOP
 10
63.500000
 20
22.225000
 40
0.100000
 41
0.100000
 42
0.000000
  0
VERTEX
  8
PG_SOLDERMASK_TOP
 10
63.500000
 20
22.500000
 40
0.100000
 41
0.100000
 42
0.000000
  0
SEQEND
  0
POLYLINE
  8
PG_SOLDERMASK_TOP
 66
1
 70
0
 40
0.000000
 41
0.000000
 39
0.000000
  0
VERTEX
  8
PG_SOLDERMASK_TOP
 10
63.500000
 20
22.500000
 40
0.100000
 41
0.100000
 42
0.000000
  0
VERTEX
  8
PG_SOLDERMASK_TOP
 10
63.775000
 20
22.500000
 40
0.100000
 41
0.100000
 42
0.000000
  0
SEQEND
  0
POLYLINE
  8
PG_SOLDERMASK_TOP
 66
1
 70
1
 40
0.000000
 41
0.000000
 39
0.000000
  0
VERTEX
  8
PG_SOLDERMASK_TOP
 10
67.500000
 20
21.000000
 40
0.000000
 41
0.000000
 42
1.000000
  0
VERTEX
  8
PG_SOLDERMASK_TOP
 10
67.000000
 20
21.000000
 40
0.000000
 41
0.000000
 42
1.000000
  0
SEQEND
  0
POLYLINE
  8
PG_SOLDERMASK_TOP
 66
1
 70
1
 40
0.000000
 41
0.000000
 39
0.000000
  0
VERTEX
  8
PG_SOLDERMASK_TOP
 10
63.000000
 20
21.000000
 40
0.000000
 41
0.000000
 42
1.000000
  0
VERTEX
  8
PG_SOLDERMASK_TOP
 10
62.500000
 20
21.000000
 40
0.000000
 41
0.000000
 42
1.000000
  0
SEQEND
  0
TEXT
  8
RD_SILKSCREEN_TOP
 10
65.980000
 20
23.710000
 11
0.000000
 21
0.000000
 40
0.600000
 41
1.083333
 50
0.000000
  7
STANDARD
 71
0
 72
0
  1
D15
 73
0
  0
POLYLINE
  8
PIN_TOP
 66
1
 70
1
 40
0.000000
 41
0.000000
 39
0.000000
  0
VERTEX
  8
PIN_TOP
 10
49.760000
 20
21.750000
 40
0.000000
 41
0.000000
 42
0.000000
  0
VERTEX
  8
PIN_TOP
 10
49.760000
 20
20.250000
 40
0.000000
 41
0.000000
 42
0.000000
  0
VERTEX
  8
PIN_TOP
 10
49.200000
 20
20.250000
 40
0.000000
 41
0.000000
 42
0.000000
  0
VERTEX
  8
PIN_TOP
 10
49.200000
 20
21.750000
 40
0.000000
 41
0.000000
 42
0.000000
  0
SEQEND
  0
POLYLINE
  8
PIN_SOLDERMASK_TOP
 66
1
 70
1
 40
0.000000
 41
0.000000
 39
0.000000
  0
VERTEX
  8
PIN_SOLDERMASK_TOP
 10
49.760000
 20
21.750000
 40
0.000000
 41
0.000000
 42
0.000000
  0
VERTEX
  8
PIN_SOLDERMASK_TOP
 10
49.760000
 20
20.250000
 40
0.000000
 41
0.000000
 42
0.000000
  0
VERTEX
  8
PIN_SOLDERMASK_TOP
 10
49.200000
 20
20.250000
 40
0.000000
 41
0.000000
 42
0.000000
  0
VERTEX
  8
PIN_SOLDERMASK_TOP
 10
49.200000
 20
21.750000
 40
0.000000
 41
0.000000
 42
0.000000
  0
SEQEND
  0
POLYLINE
  8
PIN_TOP
 66
1
 70
1
 40
0.000000
 41
0.000000
 39
0.000000
  0
VERTEX
  8
PIN_TOP
 10
48.800000
 20
21.750000
 40
0.000000
 41
0.000000
 42
0.000000
  0
VERTEX
  8
PIN_TOP
 10
48.800000
 20
20.250000
 40
0.000000
 41
0.000000
 42
0.000000
  0
VERTEX
  8
PIN_TOP
 10
48.240000
 20
20.250000
 40
0.000000
 41
0.000000
 42
0.000000
  0
VERTEX
  8
PIN_TOP
 10
48.240000
 20
21.750000
 40
0.000000
 41
0.000000
 42
0.000000
  0
SEQEND
  0
POLYLINE
  8
PIN_SOLDERMASK_TOP
 66
1
 70
1
 40
0.000000
 41
0.000000
 39
0.000000
  0
VERTEX
  8
PIN_SOLDERMASK_TOP
 10
48.800000
 20
21.750000
 40
0.000000
 41
0.000000
 42
0.000000
  0
VERTEX
  8
PIN_SOLDERMASK_TOP
 10
48.800000
 20
20.250000
 40
0.000000
 41
0.000000
 42
0.000000
  0
VERTEX
  8
PIN_SOLDERMASK_TOP
 10
48.240000
 20
20.250000
 40
0.000000
 41
0.000000
 42
0.000000
  0
VERTEX
  8
PIN_SOLDERMASK_TOP
 10
48.240000
 20
21.750000
 40
0.000000
 41
0.000000
 42
0.000000
  0
SEQEND
  0
POLYLINE
  8
PG_SOLDERMASK_TOP
 66
1
 70
0
 40
0.000000
 41
0.000000
 39
0.000000
  0
VERTEX
  8
PG_SOLDERMASK_TOP
 10
50.700200
 20
19.499800
 40
0.100000
 41
0.100000
 42
0.000000
  0
VERTEX
  8
PG_SOLDERMASK_TOP
 10
50.300200
 20
19.499800
 40
0.100000
 41
0.100000
 42
0.000000
  0
SEQEND
  0
POLYLINE
  8
PG_SOLDERMASK_TOP
 66
1
 70
0
 40
0.000000
 41
0.000000
 39
0.000000
  0
VERTEX
  8
PG_SOLDERMASK_TOP
 10
50.500200
 20
19.699800
 40
0.100000
 41
0.100000
 42
0.000000
  0
VERTEX
  8
PG_SOLDERMASK_TOP
 10
50.500200
 20
19.299800
 40
0.100000
 41
0.100000
 42
0.000000
  0
SEQEND
  0
POLYLINE
  8
PG_SOLDERMASK_TOP
 66
1
 70
0
 40
0.000000
 41
0.000000
 39
0.000000
  0
VERTEX
  8
PG_SOLDERMASK_TOP
 10
50.700200
 20
19.499800
 40
0.100000
 41
0.100000
 42
0.000000
  0
VERTEX
  8
PG_SOLDERMASK_TOP
 10
50.300200
 20
19.499800
 40
0.100000
 41
0.100000
 42
0.000000
  0
SEQEND
  0
POLYLINE
  8
PG_SOLDERMASK_TOP
 66
1
 70
0
 40
0.000000
 41
0.000000
 39
0.000000
  0
VERTEX
  8
PG_SOLDERMASK_TOP
 10
50.500200
 20
19.699800
 40
0.100000
 41
0.100000
 42
0.000000
  0
VERTEX
  8
PG_SOLDERMASK_TOP
 10
50.500200
 20
19.299800
 40
0.100000
 41
0.100000
 42
0.000000
  0
SEQEND
  0
POLYLINE
  8
PG_SOLDERMASK_TOP
 66
1
 70
0
 40
0.000000
 41
0.000000
 39
0.000000
  0
VERTEX
  8
PG_SOLDERMASK_TOP
 10
47.500000
 20
22.225000
 40
0.100000
 41
0.100000
 42
0.000000
  0
VERTEX
  8
PG_SOLDERMASK_TOP
 10
47.500000
 20
22.500000
 40
0.100000
 41
0.100000
 42
0.000000
  0
SEQEND
  0
POLYLINE
  8
PG_SOLDERMASK_TOP
 66
1
 70
0
 40
0.000000
 41
0.000000
 39
0.000000
  0
VERTEX
  8
PG_SOLDERMASK_TOP
 10
47.500000
 20
22.500000
 40
0.100000
 41
0.100000
 42
0.000000
  0
VERTEX
  8
PG_SOLDERMASK_TOP
 10
47.775000
 20
22.500000
 40
0.100000
 41
0.100000
 42
0.000000
  0
SEQEND
  0
POLYLINE
  8
PG_SOLDERMASK_TOP
 66
1
 70
1
 40
0.000000
 41
0.000000
 39
0.000000
  0
VERTEX
  8
PG_SOLDERMASK_TOP
 10
51.500000
 20
21.000000
 40
0.000000
 41
0.000000
 42
1.000000
  0
VERTEX
  8
PG_SOLDERMASK_TOP
 10
51.000000
 20
21.000000
 40
0.000000
 41
0.000000
 42
1.000000
  0
SEQEND
  0
POLYLINE
  8
PG_SOLDERMASK_TOP
 66
1
 70
1
 40
0.000000
 41
0.000000
 39
0.000000
  0
VERTEX
  8
PG_SOLDERMASK_TOP
 10
47.000000
 20
21.000000
 40
0.000000
 41
0.000000
 42
1.000000
  0
VERTEX
  8
PG_SOLDERMASK_TOP
 10
46.500000
 20
21.000000
 40
0.000000
 41
0.000000
 42
1.000000
  0
SEQEND
  0
TEXT
  8
RD_SILKSCREEN_TOP
 10
49.980000
 20
23.710000
 11
0.000000
 21
0.000000
 40
0.600000
 41
1.083333
 50
0.000000
  7
STANDARD
 71
0
 72
0
  1
D16
 73
0
  0
POLYLINE
  8
BG_SILKSCREEN_TOP
 66
1
 70
1
 40
0.000000
 41
0.000000
 39
0.000000
  0
VERTEX
  8
BG_SILKSCREEN_TOP
 10
39.136600
 20
8.685200
 40
0.000000
 41
0.000000
 42
0.000000
  0
VERTEX
  8
BG_SILKSCREEN_TOP
 10
39.146200
 20
8.304800
 40
0.000000
 41
0.000000
 42
0.000000
  0
VERTEX
  8
BG_SILKSCREEN_TOP
 10
39.147800
 20
8.241600
 40
0.000000
 41
0.000000
 42
0.000000
  0
VERTEX
  8
BG_SILKSCREEN_TOP
 10
39.149400
 20
8.178200
 40
0.000000
 41
0.000000
 42
0.000000
  0
VERTEX
  8
BG_SILKSCREEN_TOP
 10
39.152200
 20
8.051400
 40
0.000000
 41
0.000000
 42
0.000000
  0
VERTEX
  8
BG_SILKSCREEN_TOP
 10
39.154600
 20
7.924600
 40
0.000000
 41
0.000000
 42
0.000000
  0
VERTEX
  8
BG_SILKSCREEN_TOP
 10
39.155600
 20
7.861200
 40
0.000000
 41
0.000000
 42
0.000000
  0
VERTEX
  8
BG_SILKSCREEN_TOP
 10
39.156200
 20
7.797800
 40
0.000000
 41
0.000000
 42
0.000000
  0
VERTEX
  8
BG_SILKSCREEN_TOP
 10
39.156400
 20
7.734400
 40
0.000000
 41
0.000000
 42
0.000000
  0
VERTEX
  8
BG_SILKSCREEN_TOP
 10
39.156200
 20
7.671000
 40
0.000000
 41
0.000000
 42
0.000000
  0
VERTEX
  8
BG_SILKSCREEN_TOP
 10
39.154600
 20
7.544200
 40
0.000000
 41
0.000000
 42
0.000000
  0
VERTEX
  8
BG_SILKSCREEN_TOP
 10
39.153400
 20
7.480800
 40
0.000000
 41
0.000000
 42
0.000000
  0
VERTEX
  8
BG_SILKSCREEN_TOP
 10
39.123800
 20
7.501000
 40
0.000000
 41
0.000000
 42
0.000000
  0
VERTEX
  8
BG_SILKSCREEN_TOP
 10
39.085800
 20
7.620200
 40
0.000000
 41
0.000000
 42
0.000000
  0
VERTEX
  8
BG_SILKSCREEN_TOP
 10
39.067000
 20
7.680000
 40
0.000000
 41
0.000000
 42
0.000000
  0
VERTEX
  8
BG_SILKSCREEN_TOP
 10
39.048400
 20
7.739800
 40
0.000000
 41
0.000000
 42
0.000000
  0
VERTEX
  8
BG_SILKSCREEN_TOP
 10
39.030000
 20
7.799600
 40
0.000000
 41
0.000000
 42
0.000000
  0
VERTEX
  8
BG_SILKSCREEN_TOP
 10
39.011800
 20
7.859600
 40
0.000000
 41
0.000000
 42
0.000000
  0
VERTEX
  8
BG_SILKSCREEN_TOP
 10
38.994000
 20
7.919600
 40
0.000000
 41
0.000000
 42
0.000000
  0
VERTEX
  8
BG_SILKSCREEN_TOP
 10
38.976400
 20
7.979600
 40
0.000000
 41
0.000000
 42
0.000000
  0
VERTEX
  8
BG_SILKSCREEN_TOP
 10
38.958800
 20
8.039800
 40
0.000000
 41
0.000000
 42
0.000000
  0
VERTEX
  8
BG_SILKSCREEN_TOP
 10
38.941400
 20
8.099800
 40
0.000000
 41
0.000000
 42
0.000000
  0
VERTEX
  8
BG_SILKSCREEN_TOP
 10
38.924200
 20
8.160000
 40
0.000000
 41
0.000000
 42
0.000000
  0
VERTEX
  8
BG_SILKSCREEN_TOP
 10
38.906800
 20
8.220200
 40
0.000000
 41
0.000000
 42
0.000000
  0
VERTEX
  8
BG_SILKSCREEN_TOP
 10
38.872400
 20
8.340600
 40
0.000000
 41
0.000000
 42
0.000000
  0
VERTEX
  8
BG_SILKSCREEN_TOP
 10
38.855000
 20
8.400800
 40
0.000000
 41
0.000000
 42
0.000000
  0
VERTEX
  8
BG_SILKSCREEN_TOP
 10
38.837800
 20
8.461000
 40
0.000000
 41
0.000000
 42
0.000000
  0
VERTEX
  8
BG_SILKSCREEN_TOP
 10
38.820400
 20
8.521200
 40
0.000000
 41
0.000000
 42
0.000000
  0
VERTEX
  8
BG_SILKSCREEN_TOP
 10
38.803200
 20
8.581200
 40
0.000000
 41
0.000000
 42
0.000000
  0
VERTEX
  8
BG_SILKSCREEN_TOP
 10
38.751000
 20
8.761800
 40
0.000000
 41
0.000000
 42
0.000000
  0
VERTEX
  8
BG_SILKSCREEN_TOP
 10
38.733600
 20
8.821800
 40
0.000000
 41
0.000000
 42
0.000000
  0
VERTEX
  8
BG_SILKSCREEN_TOP
 10
38.716200
 20
8.882000
 40
0.000000
 41
0.000000
 42
0.000000
  0
VERTEX
  8
BG_SILKSCREEN_TOP
 10
38.698400
 20
8.942000
 40
0.000000
 41
0.000000
 42
0.000000
  0
VERTEX
  8
BG_SILKSCREEN_TOP
 10
38.680800
 20
9.002200
 40
0.000000
 41
0.000000
 42
0.000000
  0
VERTEX
  8
BG_SILKSCREEN_TOP
 10
37.950600
 20
9.002200
 40
0.000000
 41
0.000000
 42
0.000000
  0
VERTEX
  8
BG_SILKSCREEN_TOP
 10
37.950600
 20
7.002200
 40
0.000000
 41
0.000000
 42
0.000000
  0
VERTEX
  8
BG_SILKSCREEN_TOP
 10
38.435400
 20
7.002200
 40
0.000000
 41
0.000000
 42
0.000000
  0
VERTEX
  8
BG_SILKSCREEN_TOP
 10
38.433800
 20
7.068000
 40
0.000000
 41
0.000000
 42
0.000000
  0
VERTEX
  8
BG_SILKSCREEN_TOP
 10
38.432000
 20
7.133800
 40
0.000000
 41
0.000000
 42
0.000000
  0
VERTEX
  8
BG_SILKSCREEN_TOP
 10
38.430400
 20
7.199400
 40
0.000000
 41
0.000000
 42
0.000000
  0
VERTEX
  8
BG_SILKSCREEN_TOP
 10
38.424000
 20
7.462600
 40
0.000000
 41
0.000000
 42
0.000000
  0
VERTEX
  8
BG_SILKSCREEN_TOP
 10
38.422200
 20
7.528400
 40
0.000000
 41
0.000000
 42
0.000000
  0
VERTEX
  8
BG_SILKSCREEN_TOP
 10
38.412600
 20
7.923200
 40
0.000000
 41
0.000000
 42
0.000000
  0
VERTEX
  8
BG_SILKSCREEN_TOP
 10
38.411400
 20
7.988800
 40
0.000000
 41
0.000000
 42
0.000000
  0
VERTEX
  8
BG_SILKSCREEN_TOP
 10
38.410000
 20
8.054600
 40
0.000000
 41
0.000000
 42
0.000000
  0
VERTEX
  8
BG_SILKSCREEN_TOP
 10
38.408000
 20
8.186200
 40
0.000000
 41
0.000000
 42
0.000000
  0
VERTEX
  8
BG_SILKSCREEN_TOP
 10
38.407400
 20
8.252000
 40
0.000000
 41
0.000000
 42
0.000000
  0
VERTEX
  8
BG_SILKSCREEN_TOP
 10
38.407200
 20
8.317800
 40
0.000000
 41
0.000000
 42
0.000000
  0
VERTEX
  8
BG_SILKSCREEN_TOP
 10
38.407600
 20
8.383600
 40
0.000000
 41
0.000000
 42
0.000000
  0
VERTEX
  8
BG_SILKSCREEN_TOP
 10
38.408200
 20
8.449400
 40
0.000000
 41
0.000000
 42
0.000000
  0
VERTEX
  8
BG_SILKSCREEN_TOP
 10
38.409000
 20
8.515200
 40
0.000000
 41
0.000000
 42
0.000000
  0
VERTEX
  8
BG_SILKSCREEN_TOP
 10
38.410000
 20
8.581000
 40
0.000000
 41
0.000000
 42
0.000000
  0
VERTEX
  8
BG_SILKSCREEN_TOP
 10
38.440400
 20
8.556000
 40
0.000000
 41
0.000000
 42
0.000000
  0
VERTEX
  8
BG_SILKSCREEN_TOP
 10
38.460600
 20
8.494200
 40
0.000000
 41
0.000000
 42
0.000000
  0
VERTEX
  8
BG_SILKSCREEN_TOP
 10
38.480600
 20
8.432200
 40
0.000000
 41
0.000000
 42
0.000000
  0
VERTEX
  8
BG_SILKSCREEN_TOP
 10
38.520600
 20
8.308600
 40
0.000000
 41
0.000000
 42
0.000000
  0
VERTEX
  8
BG_SILKSCREEN_TOP
 10
38.540400
 20
8.246600
 40
0.000000
 41
0.000000
 42
0.000000
  0
VERTEX
  8
BG_SILKSCREEN_TOP
 10
38.560000
 20
8.184600
 40
0.000000
 41
0.000000
 42
0.000000
  0
VERTEX
  8
BG_SILKSCREEN_TOP
 10
38.579400
 20
8.122600
 40
0.000000
 41
0.000000
 42
0.000000
  0
VERTEX
  8
BG_SILKSCREEN_TOP
 10
38.598600
 20
8.060400
 40
0.000000
 41
0.000000
 42
0.000000
  0
VERTEX
  8
BG_SILKSCREEN_TOP
 10
38.655600
 20
7.873800
 40
0.000000
 41
0.000000
 42
0.000000
  0
VERTEX
  8
BG_SILKSCREEN_TOP
 10
38.674400
 20
7.811600
 40
0.000000
 41
0.000000
 42
0.000000
  0
VERTEX
  8
BG_SILKSCREEN_TOP
 10
38.693000
 20
7.749400
 40
0.000000
 41
0.000000
 42
0.000000
  0
VERTEX
  8
BG_SILKSCREEN_TOP
 10
38.711800
 20
7.687000
 40
0.000000
 41
0.000000
 42
0.000000
  0
VERTEX
  8
BG_SILKSCREEN_TOP
 10
38.730600
 20
7.624800
 40
0.000000
 41
0.000000
 42
0.000000
  0
VERTEX
  8
BG_SILKSCREEN_TOP
 10
38.749200
 20
7.562600
 40
0.000000
 41
0.000000
 42
0.000000
  0
VERTEX
  8
BG_SILKSCREEN_TOP
 10
38.768000
 20
7.500200
 40
0.000000
 41
0.000000
 42
0.000000
  0
VERTEX
  8
BG_SILKSCREEN_TOP
 10
38.786600
 20
7.438000
 40
0.000000
 41
0.000000
 42
0.000000
  0
VERTEX
  8
BG_SILKSCREEN_TOP
 10
38.805400
 20
7.375800
 40
0.000000
 41
0.000000
 42
0.000000
  0
VERTEX
  8
BG_SILKSCREEN_TOP
 10
38.824200
 20
7.313400
 40
0.000000
 41
0.000000
 42
0.000000
  0
VERTEX
  8
BG_SILKSCREEN_TOP
 10
38.842800
 20
7.251200
 40
0.000000
 41
0.000000
 42
0.000000
  0
VERTEX
  8
BG_SILKSCREEN_TOP
 10
38.861600
 20
7.189000
 40
0.000000
 41
0.000000
 42
0.000000
  0
VERTEX
  8
BG_SILKSCREEN_TOP
 10
38.880400
 20
7.126600
 40
0.000000
 41
0.000000
 42
0.000000
  0
VERTEX
  8
BG_SILKSCREEN_TOP
 10
38.899000
 20
7.064400
 40
0.000000
 41
0.000000
 42
0.000000
  0
VERTEX
  8
BG_SILKSCREEN_TOP
 10
38.917800
 20
7.002200
 40
0.000000
 41
0.000000
 42
0.000000
  0
VERTEX
  8
BG_SILKSCREEN_TOP
 10
39.612600
 20
7.002200
 40
0.000000
 41
0.000000
 42
0.000000
  0
VERTEX
  8
BG_SILKSCREEN_TOP
 10
39.612600
 20
9.002200
 40
0.000000
 41
0.000000
 42
0.000000
  0
VERTEX
  8
BG_SILKSCREEN_TOP
 10
39.128400
 20
9.002200
 40
0.000000
 41
0.000000
 42
0.000000
  0
VERTEX
  8
BG_SILKSCREEN_TOP
 10
39.134800
 20
8.748600
 40
0.000000
 41
0.000000
 42
0.000000
  0
SEQEND
  0
POLYLINE
  8
BG_SILKSCREEN_TOP
 66
1
 70
1
 40
0.000000
 41
0.000000
 39
0.000000
  0
VERTEX
  8
BG_SILKSCREEN_TOP
 10
36.880200
 20
8.153800
 40
0.000000
 41
0.000000
 42
0.000000
  0
VERTEX
  8
BG_SILKSCREEN_TOP
 10
36.879800
 20
7.999000
 40
0.000000
 41
0.000000
 42
0.000000
  0
VERTEX
  8
BG_SILKSCREEN_TOP
 10
36.879600
 20
7.921800
 40
0.000000
 41
0.000000
 42
0.000000
  0
VERTEX
  8
BG_SILKSCREEN_TOP
 10
36.879400
 20
7.844400
 40
0.000000
 41
0.000000
 42
0.000000
  0
VERTEX
  8
BG_SILKSCREEN_TOP
 10
36.879000
 20
7.767200
 40
0.000000
 41
0.000000
 42
0.000000
  0
VERTEX
  8
BG_SILKSCREEN_TOP
 10
36.878600
 20
7.689800
 40
0.000000
 41
0.000000
 42
0.000000
  0
VERTEX
  8
BG_SILKSCREEN_TOP
 10
36.876400
 20
7.612600
 40
0.000000
 41
0.000000
 42
0.000000
  0
VERTEX
  8
BG_SILKSCREEN_TOP
 10
36.872200
 20
7.535400
 40
0.000000
 41
0.000000
 42
0.000000
  0
VERTEX
  8
BG_SILKSCREEN_TOP
 10
36.862400
 20
7.458800
 40
0.000000
 41
0.000000
 42
0.000000
  0
VERTEX
  8
BG_SILKSCREEN_TOP
 10
36.839800
 20
7.385600
 40
0.000000
 41
0.000000
 42
0.000000
  0
VERTEX
  8
BG_SILKSCREEN_TOP
 10
36.792000
 20
7.327600
 40
0.000000
 41
0.000000
 42
0.000000
  0
VERTEX
  8
BG_SILKSCREEN_TOP
 10
36.726600
 20
7.292200
 40
0.000000
 41
0.000000
 42
0.000000
  0
VERTEX
  8
BG_SILKSCREEN_TOP
 10
36.653600
 20
7.283000
 40
0.000000
 41
0.000000
 42
0.000000
  0
VERTEX
  8
BG_SILKSCREEN_TOP
 10
36.583400
 20
7.300400
 40
0.000000
 41
0.000000
 42
0.000000
  0
VERTEX
  8
BG_SILKSCREEN_TOP
 10
36.525600
 20
7.342800
 40
0.000000
 41
0.000000
 42
0.000000
  0
VERTEX
  8
BG_SILKSCREEN_TOP
 10
36.494200
 20
7.404800
 40
0.000000
 41
0.000000
 42
0.000000
  0
VERTEX
  8
BG_SILKSCREEN_TOP
 10
36.482800
 20
7.473400
 40
0.000000
 41
0.000000
 42
0.000000
  0
VERTEX
  8
BG_SILKSCREEN_TOP
 10
36.476800
 20
7.542800
 40
0.000000
 41
0.000000
 42
0.000000
  0
VERTEX
  8
BG_SILKSCREEN_TOP
 10
36.473000
 20
7.612200
 40
0.000000
 41
0.000000
 42
0.000000
  0
VERTEX
  8
BG_SILKSCREEN_TOP
 10
36.470600
 20
7.681600
 40
0.000000
 41
0.000000
 42
0.000000
  0
VERTEX
  8
BG_SILKSCREEN_TOP
 10
36.469400
 20
7.751000
 40
0.000000
 41
0.000000
 42
0.000000
  0
VERTEX
  8
BG_SILKSCREEN_TOP
 10
36.468200
 20
7.820600
 40
0.000000
 41
0.000000
 42
0.000000
  0
VERTEX
  8
BG_SILKSCREEN_TOP
 10
36.467200
 20
7.890000
 40
0.000000
 41
0.000000
 42
0.000000
  0
VERTEX
  8
BG_SILKSCREEN_TOP
 10
36.466200
 20
7.959600
 40
0.000000
 41
0.000000
 42
0.000000
  0
VERTEX
  8
BG_SILKSCREEN_TOP
 10
36.465400
 20
8.029000
 40
0.000000
 41
0.000000
 42
0.000000
  0
VERTEX
  8
BG_SILKSCREEN_TOP
 10
36.464600
 20
8.098600
 40
0.000000
 41
0.000000
 42
0.000000
  0
VERTEX
  8
BG_SILKSCREEN_TOP
 10
36.463800
 20
8.168000
 40
0.000000
 41
0.000000
 42
0.000000
  0
VERTEX
  8
BG_SILKSCREEN_TOP
 10
36.463000
 20
8.237600
 40
0.000000
 41
0.000000
 42
0.000000
  0
VERTEX
  8
BG_SILKSCREEN_TOP
 10
36.462400
 20
8.307000
 40
0.000000
 41
0.000000
 42
0.000000
  0
VERTEX
  8
BG_SILKSCREEN_TOP
 10
36.461600
 20
8.376600
 40
0.000000
 41
0.000000
 42
0.000000
  0
VERTEX
  8
BG_SILKSCREEN_TOP
 10
36.461000
 20
8.446000
 40
0.000000
 41
0.000000
 42
0.000000
  0
VERTEX
  8
BG_SILKSCREEN_TOP
 10
36.460200
 20
8.515600
 40
0.000000
 41
0.000000
 42
0.000000
  0
VERTEX
  8
BG_SILKSCREEN_TOP
 10
36.459400
 20
8.585000
 40
0.000000
 41
0.000000
 42
0.000000
  0
VERTEX
  8
BG_SILKSCREEN_TOP
 10
36.458800
 20
8.654600
 40
0.000000
 41
0.000000
 42
0.000000
  0
VERTEX
  8
BG_SILKSCREEN_TOP
 10
36.458000
 20
8.724200
 40
0.000000
 41
0.000000
 42
0.000000
  0
VERTEX
  8
BG_SILKSCREEN_TOP
 10
36.457400
 20
8.793600
 40
0.000000
 41
0.000000
 42
0.000000
  0
VERTEX
  8
BG_SILKSCREEN_TOP
 10
36.456600
 20
8.863200
 40
0.000000
 41
0.000000
 42
0.000000
  0
VERTEX
  8
BG_SILKSCREEN_TOP
 10
36.456000
 20
8.932600
 40
0.000000
 41
0.000000
 42
0.000000
  0
VERTEX
  8
BG_SILKSCREEN_TOP
 10
36.455200
 20
9.002200
 40
0.000000
 41
0.000000
 42
0.000000
  0
VERTEX
  8
BG_SILKSCREEN_TOP
 10
35.978800
 20
9.002200
 40
0.000000
 41
0.000000
 42
0.000000
  0
VERTEX
  8
BG_SILKSCREEN_TOP
 10
35.978800
 20
8.059400
 40
0.000000
 41
0.000000
 42
0.000000
  0
VERTEX
  8
BG_SILKSCREEN_TOP
 10
35.979200
 20
7.954600
 40
0.000000
 41
0.000000
 42
0.000000
  0
VERTEX
  8
BG_SILKSCREEN_TOP
 10
35.979800
 20
7.849800
 40
0.000000
 41
0.000000
 42
0.000000
  0
VERTEX
  8
BG_SILKSCREEN_TOP
 10
35.980600
 20
7.745000
 40
0.000000
 41
0.000000
 42
0.000000
  0
VERTEX
  8
BG_SILKSCREEN_TOP
 10
35.981600
 20
7.640400
 40
0.000000
 41
0.000000
 42
0.000000
  0
VERTEX
  8
BG_SILKSCREEN_TOP
 10
35.983200
 20
7.535600
 40
0.000000
 41
0.000000
 42
0.000000
  0
VERTEX
  8
BG_SILKSCREEN_TOP
 10
35.989800
 20
7.431200
 40
0.000000
 41
0.000000
 42
0.000000
  0
VERTEX
  8
BG_SILKSCREEN_TOP
 10
36.002800
 20
7.327400
 40
0.000000
 41
0.000000
 42
0.000000
  0
VERTEX
  8
BG_SILKSCREEN_TOP
 10
36.032600
 20
7.227800
 40
0.000000
 41
0.000000
 42
0.000000
  0
VERTEX
  8
BG_SILKSCREEN_TOP
 10
36.085800
 20
7.139800
 40
0.000000
 41
0.000000
 42
0.000000
  0
VERTEX
  8
BG_SILKSCREEN_TOP
 10
36.159000
 20
7.068000
 40
0.000000
 41
0.000000
 42
0.000000
  0
VERTEX
  8
BG_SILKSCREEN_TOP
 10
36.244600
 20
7.012400
 40
0.000000
 41
0.000000
 42
0.000000
  0
VERTEX
  8
BG_SILKSCREEN_TOP
 10
36.338400
 20
6.973200
 40
0.000000
 41
0.000000
 42
0.000000
  0
VERTEX
  8
BG_SILKSCREEN_TOP
 10
36.437000
 20
6.949600
 40
0.000000
 41
0.000000
 42
0.000000
  0
VERTEX
  8
BG_SILKSCREEN_TOP
 10
36.537600
 20
6.938200
 40
0.000000
 41
0.000000
 42
0.000000
  0
VERTEX
  8
BG_SILKSCREEN_TOP
 10
36.638800
 20
6.933600
 40
0.000000
 41
0.000000
 42
0.000000
  0
VERTEX
  8
BG_SILKSCREEN_TOP
 10
36.739800
 20
6.934800
 40
0.000000
 41
0.000000
 42
0.000000
  0
VERTEX
  8
BG_SILKSCREEN_TOP
 10
36.840400
 20
6.944200
 40
0.000000
 41
0.000000
 42
0.000000
  0
VERTEX
  8
BG_SILKSCREEN_TOP
 10
36.939800
 20
6.961400
 40
0.000000
 41
0.000000
 42
0.000000
  0
VERTEX
  8
BG_SILKSCREEN_TOP
 10
37.035800
 20
6.990600
 40
0.000000
 41
0.000000
 42
0.000000
  0
VERTEX
  8
BG_SILKSCREEN_TOP
 10
37.126400
 20
7.034000
 40
0.000000
 41
0.000000
 42
0.000000
  0
VERTEX
  8
BG_SILKSCREEN_TOP
 10
37.207000
 20
7.091600
 40
0.000000
 41
0.000000
 42
0.000000
  0
VERTEX
  8
BG_SILKSCREEN_TOP
 10
37.274200
 20
7.164400
 40
0.000000
 41
0.000000
 42
0.000000
  0
VERTEX
  8
BG_SILKSCREEN_TOP
 10
37.323600
 20
7.248800
 40
0.000000
 41
0.000000
 42
0.000000
  0
VERTEX
  8
BG_SILKSCREEN_TOP
 10
37.352400
 20
7.342000
 40
0.000000
 41
0.000000
 42
0.000000
  0
VERTEX
  8
BG_SILKSCREEN_TOP
 10
37.360600
 20
7.438400
 40
0.000000
 41
0.000000
 42
0.000000
  0
VERTEX
  8
BG_SILKSCREEN_TOP
 10
37.363800
 20
7.535200
 40
0.000000
 41
0.000000
 42
0.000000
  0
VERTEX
  8
BG_SILKSCREEN_TOP
 10
37.366400
 20
7.632000
 40
0.000000
 41
0.000000
 42
0.000000
  0
VERTEX
  8
BG_SILKSCREEN_TOP
 10
37.368600
 20
7.728800
 40
0.000000
 41
0.000000
 42
0.000000
  0
VERTEX
  8
BG_SILKSCREEN_TOP
 10
37.370400
 20
7.825800
 40
0.000000
 41
0.000000
 42
0.000000
  0
VERTEX
  8
BG_SILKSCREEN_TOP
 10
37.371600
 20
7.922600
 40
0.000000
 41
0.000000
 42
0.000000
  0
VERTEX
  8
BG_SILKSCREEN_TOP
 10
37.372400
 20
8.019400
 40
0.000000
 41
0.000000
 42
0.000000
  0
VERTEX
  8
BG_SILKSCREEN_TOP
 10
37.373000
 20
8.116400
 40
0.000000
 41
0.000000
 42
0.000000
  0
VERTEX
  8
BG_SILKSCREEN_TOP
 10
37.373200
 20
8.213200
 40
0.000000
 41
0.000000
 42
0.000000
  0
VERTEX
  8
BG_SILKSCREEN_TOP
 10
37.373200
 20
8.988000
 40
0.000000
 41
0.000000
 42
0.000000
  0
VERTEX
  8
BG_SILKSCREEN_TOP
 10
37.363200
 20
8.988400
 40
0.000000
 41
0.000000
 42
0.000000
  0
VERTEX
  8
BG_SILKSCREEN_TOP
 10
37.353400
 20
8.988600
 40
0.000000
 41
0.000000
 42
0.000000
  0
VERTEX
  8
BG_SILKSCREEN_TOP
 10
37.343600
 20
8.989000
 40
0.000000
 41
0.000000
 42
0.000000
  0
VERTEX
  8
BG_SILKSCREEN_TOP
 10
37.333600
 20
8.989400
 40
0.000000
 41
0.000000
 42
0.000000
  0
VERTEX
  8
BG_SILKSCREEN_TOP
 10
37.323800
 20
8.989600
 40
0.000000
 41
0.000000
 42
0.000000
  0
VERTEX
  8
BG_SILKSCREEN_TOP
 10
37.314000
 20
8.990000
 40
0.000000
 41
0.000000
 42
0.000000
  0
VERTEX
  8
BG_SILKSCREEN_TOP
 10
37.304200
 20
8.990200
 40
0.000000
 41
0.000000
 42
0.000000
  0
VERTEX
  8
BG_SILKSCREEN_TOP
 10
37.294200
 20
8.990600
 40
0.000000
 41
0.000000
 42
0.000000
  0
VERTEX
  8
BG_SILKSCREEN_TOP
 10
37.284400
 20
8.991000
 40
0.000000
 41
0.000000
 42
0.000000
  0
VERTEX
  8
BG_SILKSCREEN_TOP
 10
37.274600
 20
8.991200
 40
0.000000
 41
0.000000
 42
0.000000
  0
VERTEX
  8
BG_SILKSCREEN_TOP
 10
37.264600
 20
8.991600
 40
0.000000
 41
0.000000
 42
0.000000
  0
VERTEX
  8
BG_SILKSCREEN_TOP
 10
37.254800
 20
8.991800
 40
0.000000
 41
0.000000
 42
0.000000
  0
VERTEX
  8
BG_SILKSCREEN_TOP
 10
37.235200
 20
8.992600
 40
0.000000
 41
0.000000
 42
0.000000
  0
VERTEX
  8
BG_SILKSCREEN_TOP
 10
37.225200
 20
8.992800
 40
0.000000
 41
0.000000
 42
0.000000
  0
VERTEX
  8
BG_SILKSCREEN_TOP
 10
37.205600
 20
8.993600
 40
0.000000
 41
0.000000
 42
0.000000
  0
VERTEX
  8
BG_SILKSCREEN_TOP
 10
37.195600
 20
8.993800
 40
0.000000
 41
0.000000
 42
0.000000
  0
VERTEX
  8
BG_SILKSCREEN_TOP
 10
37.185800
 20
8.994200
 40
0.000000
 41
0.000000
 42
0.000000
  0
VERTEX
  8
BG_SILKSCREEN_TOP
 10
37.176000
 20
8.994400
 40
0.000000
 41
0.000000
 42
0.000000
  0
VERTEX
  8
BG_SILKSCREEN_TOP
 10
37.166000
 20
8.994800
 40
0.000000
 41
0.000000
 42
0.000000
  0
VERTEX
  8
BG_SILKSCREEN_TOP
 10
37.156200
 20
8.995200
 40
0.000000
 41
0.000000
 42
0.000000
  0
VERTEX
  8
BG_SILKSCREEN_TOP
 10
37.146400
 20
8.995400
 40
0.000000
 41
0.000000
 42
0.000000
  0
VERTEX
  8
BG_SILKSCREEN_TOP
 10
37.136600
 20
8.995800
 40
0.000000
 41
0.000000
 42
0.000000
  0
VERTEX
  8
BG_SILKSCREEN_TOP
 10
37.126600
 20
8.996200
 40
0.000000
 41
0.000000
 42
0.000000
  0
VERTEX
  8
BG_SILKSCREEN_TOP
 10
37.116800
 20
8.996400
 40
0.000000
 41
0.000000
 42
0.000000
  0
VERTEX
  8
BG_SILKSCREEN_TOP
 10
37.107000
 20
8.996800
 40
0.000000
 41
0.000000
 42
0.000000
  0
VERTEX
  8
BG_SILKSCREEN_TOP
 10
37.097000
 20
8.997200
 40
0.000000
 41
0.000000
 42
0.000000
  0
VERTEX
  8
BG_SILKSCREEN_TOP
 10
37.087200
 20
8.997400
 40
0.000000
 41
0.000000
 42
0.000000
  0
VERTEX
  8
BG_SILKSCREEN_TOP
 10
37.077400
 20
8.997800
 40
0.000000
 41
0.000000
 42
0.000000
  0
VERTEX
  8
BG_SILKSCREEN_TOP
 10
37.067600
 20
8.998000
 40
0.000000
 41
0.000000
 42
0.000000
  0
VERTEX
  8
BG_SILKSCREEN_TOP
 10
37.057600
 20
8.998400
 40
0.000000
 41
0.000000
 42
0.000000
  0
VERTEX
  8
BG_SILKSCREEN_TOP
 10
37.047800
 20
8.998800
 40
0.000000
 41
0.000000
 42
0.000000
  0
VERTEX
  8
BG_SILKSCREEN_TOP
 10
37.038000
 20
8.999000
 40
0.000000
 41
0.000000
 42
0.000000
  0
VERTEX
  8
BG_SILKSCREEN_TOP
 10
37.028000
 20
8.999400
 40
0.000000
 41
0.000000
 42
0.000000
  0
VERTEX
  8
BG_SILKSCREEN_TOP
 10
37.018200
 20
8.999800
 40
0.000000
 41
0.000000
 42
0.000000
  0
VERTEX
  8
BG_SILKSCREEN_TOP
 10
37.008400
 20
9.000000
 40
0.000000
 41
0.000000
 42
0.000000
  0
VERTEX
  8
BG_SILKSCREEN_TOP
 10
36.998400
 20
9.000400
 40
0.000000
 41
0.000000
 42
0.000000
  0
VERTEX
  8
BG_SILKSCREEN_TOP
 10
36.988600
 20
9.000800
 40
0.000000
 41
0.000000
 42
0.000000
  0
VERTEX
  8
BG_SILKSCREEN_TOP
 10
36.978800
 20
9.001000
 40
0.000000
 41
0.000000
 42
0.000000
  0
VERTEX
  8
BG_SILKSCREEN_TOP
 10
36.969000
 20
9.001400
 40
0.000000
 41
0.000000
 42
0.000000
  0
VERTEX
  8
BG_SILKSCREEN_TOP
 10
36.959000
 20
9.001800
 40
0.000000
 41
0.000000
 42
0.000000
  0
VERTEX
  8
BG_SILKSCREEN_TOP
 10
36.949200
 20
9.002000
 40
0.000000
 41
0.000000
 42
0.000000
  0
VERTEX
  8
BG_SILKSCREEN_TOP
 10
36.939400
 20
9.002400
 40
0.000000
 41
0.000000
 42
0.000000
  0
VERTEX
  8
BG_SILKSCREEN_TOP
 10
36.929400
 20
9.002600
 40
0.000000
 41
0.000000
 42
0.000000
  0
VERTEX
  8
BG_SILKSCREEN_TOP
 10
36.909800
 20
9.003400
 40
0.000000
 41
0.000000
 42
0.000000
  0
VERTEX
  8
BG_SILKSCREEN_TOP
 10
36.899800
 20
9.003600
 40
0.000000
 41
0.000000
 42
0.000000
  0
VERTEX
  8
BG_SILKSCREEN_TOP
 10
36.880200
 20
9.004400
 40
0.000000
 41
0.000000
 42
0.000000
  0
SEQEND
  0
POLYLINE
  8
BG_SILKSCREEN_TOP
 66
1
 70
1
 40
0.000000
 41
0.000000
 39
0.000000
  0
VERTEX
  8
BG_SILKSCREEN_TOP
 10
40.677000
 20
9.038200
 40
0.000000
 41
0.000000
 42
0.000000
  0
VERTEX
  8
BG_SILKSCREEN_TOP
 10
40.584400
 20
9.018200
 40
0.000000
 41
0.000000
 42
0.000000
  0
VERTEX
  8
BG_SILKSCREEN_TOP
 10
40.494600
 20
8.987800
 40
0.000000
 41
0.000000
 42
0.000000
  0
VERTEX
  8
BG_SILKSCREEN_TOP
 10
40.410000
 20
8.946200
 40
0.000000
 41
0.000000
 42
0.000000
  0
VERTEX
  8
BG_SILKSCREEN_TOP
 10
40.333800
 20
8.891400
 40
0.000000
 41
0.000000
 42
0.000000
  0
VERTEX
  8
BG_SILKSCREEN_TOP
 10
40.269200
 20
8.823400
 40
0.000000
 41
0.000000
 42
0.000000
  0
VERTEX
  8
BG_SILKSCREEN_TOP
 10
40.220000
 20
8.744400
 40
0.000000
 41
0.000000
 42
0.000000
  0
VERTEX
  8
BG_SILKSCREEN_TOP
 10
40.193400
 20
8.656200
 40
0.000000
 41
0.000000
 42
0.000000
  0
VERTEX
  8
BG_SILKSCREEN_TOP
 10
40.188200
 20
8.564200
 40
0.000000
 41
0.000000
 42
0.000000
  0
VERTEX
  8
BG_SILKSCREEN_TOP
 10
40.184000
 20
8.472200
 40
0.000000
 41
0.000000
 42
0.000000
  0
VERTEX
  8
BG_SILKSCREEN_TOP
 10
40.180800
 20
8.380000
 40
0.000000
 41
0.000000
 42
0.000000
  0
VERTEX
  8
BG_SILKSCREEN_TOP
 10
40.178600
 20
8.288000
 40
0.000000
 41
0.000000
 42
0.000000
  0
VERTEX
  8
BG_SILKSCREEN_TOP
 10
40.177200
 20
8.195800
 40
0.000000
 41
0.000000
 42
0.000000
  0
VERTEX
  8
BG_SILKSCREEN_TOP
 10
40.176400
 20
8.103800
 40
0.000000
 41
0.000000
 42
0.000000
  0
VERTEX
  8
BG_SILKSCREEN_TOP
 10
40.176000
 20
8.011600
 40
0.000000
 41
0.000000
 42
0.000000
  0
VERTEX
  8
BG_SILKSCREEN_TOP
 10
40.176000
 20
7.827400
 40
0.000000
 41
0.000000
 42
0.000000
  0
VERTEX
  8
BG_SILKSCREEN_TOP
 10
40.176400
 20
7.735200
 40
0.000000
 41
0.000000
 42
0.000000
  0
VERTEX
  8
BG_SILKSCREEN_TOP
 10
40.176800
 20
7.643200
 40
0.000000
 41
0.000000
 42
0.000000
  0
VERTEX
  8
BG_SILKSCREEN_TOP
 10
40.177200
 20
7.551000
 40
0.000000
 41
0.000000
 42
0.000000
  0
VERTEX
  8
BG_SILKSCREEN_TOP
 10
40.180400
 20
7.459000
 40
0.000000
 41
0.000000
 42
0.000000
  0
VERTEX
  8
BG_SILKSCREEN_TOP
 10
40.188200
 20
7.367400
 40
0.000000
 41
0.000000
 42
0.000000
  0
VERTEX
  8
BG_SILKSCREEN_TOP
 10
40.211600
 20
7.278800
 40
0.000000
 41
0.000000
 42
0.000000
  0
VERTEX
  8
BG_SILKSCREEN_TOP
 10
40.257600
 20
7.200400
 40
0.000000
 41
0.000000
 42
0.000000
  0
VERTEX
  8
BG_SILKSCREEN_TOP
 10
40.318200
 20
7.132800
 40
0.000000
 41
0.000000
 42
0.000000
  0
VERTEX
  8
BG_SILKSCREEN_TOP
 10
40.388600
 20
7.076000
 40
0.000000
 41
0.000000
 42
0.000000
  0
VERTEX
  8
BG_SILKSCREEN_TOP
 10
40.467000
 20
7.031400
 40
0.000000
 41
0.000000
 42
0.000000
  0
VERTEX
  8
BG_SILKSCREEN_TOP
 10
40.550800
 20
6.998400
 40
0.000000
 41
0.000000
 42
0.000000
  0
VERTEX
  8
BG_SILKSCREEN_TOP
 10
40.637600
 20
6.974800
 40
0.000000
 41
0.000000
 42
0.000000
  0
VERTEX
  8
BG_SILKSCREEN_TOP
 10
40.726000
 20
6.959200
 40
0.000000
 41
0.000000
 42
0.000000
  0
VERTEX
  8
BG_SILKSCREEN_TOP
 10
40.815400
 20
6.951400
 40
0.000000
 41
0.000000
 42
0.000000
  0
VERTEX
  8
BG_SILKSCREEN_TOP
 10
40.905000
 20
6.951400
 40
0.000000
 41
0.000000
 42
0.000000
  0
VERTEX
  8
BG_SILKSCREEN_TOP
 10
40.993800
 20
6.959000
 40
0.000000
 41
0.000000
 42
0.000000
  0
VERTEX
  8
BG_SILKSCREEN_TOP
 10
41.081800
 20
6.974200
 40
0.000000
 41
0.000000
 42
0.000000
  0
VERTEX
  8
BG_SILKSCREEN_TOP
 10
41.168000
 20
6.997000
 40
0.000000
 41
0.000000
 42
0.000000
  0
VERTEX
  8
BG_SILKSCREEN_TOP
 10
41.251000
 20
7.027600
 40
0.000000
 41
0.000000
 42
0.000000
  0
VERTEX
  8
BG_SILKSCREEN_TOP
 10
41.330600
 20
7.067000
 40
0.000000
 41
0.000000
 42
0.000000
  0
VERTEX
  8
BG_SILKSCREEN_TOP
 10
41.404600
 20
7.114400
 40
0.000000
 41
0.000000
 42
0.000000
  0
VERTEX
  8
BG_SILKSCREEN_TOP
 10
41.467400
 20
7.175400
 40
0.000000
 41
0.000000
 42
0.000000
  0
VERTEX
  8
BG_SILKSCREEN_TOP
 10
41.514800
 20
7.248400
 40
0.000000
 41
0.000000
 42
0.000000
  0
VERTEX
  8
BG_SILKSCREEN_TOP
 10
41.545600
 20
7.328800
 40
0.000000
 41
0.000000
 42
0.000000
  0
VERTEX
  8
BG_SILKSCREEN_TOP
 10
41.562400
 20
7.413200
 40
0.000000
 41
0.000000
 42
0.000000
  0
VERTEX
  8
BG_SILKSCREEN_TOP
 10
41.570800
 20
7.499000
 40
0.000000
 41
0.000000
 42
0.000000
  0
VERTEX
  8
BG_SILKSCREEN_TOP
 10
41.574800
 20
7.584800
 40
0.000000
 41
0.000000
 42
0.000000
  0
VERTEX
  8
BG_SILKSCREEN_TOP
 10
41.577800
 20
7.670800
 40
0.000000
 41
0.000000
 42
0.000000
  0
VERTEX
  8
BG_SILKSCREEN_TOP
 10
41.580200
 20
7.756800
 40
0.000000
 41
0.000000
 42
0.000000
  0
VERTEX
  8
BG_SILKSCREEN_TOP
 10
41.582400
 20
7.842800
 40
0.000000
 41
0.000000
 42
0.000000
  0
VERTEX
  8
BG_SILKSCREEN_TOP
 10
41.584400
 20
7.928800
 40
0.000000
 41
0.000000
 42
0.000000
  0
VERTEX
  8
BG_SILKSCREEN_TOP
 10
41.586600
 20
8.014800
 40
0.000000
 41
0.000000
 42
0.000000
  0
VERTEX
  8
BG_SILKSCREEN_TOP
 10
41.588600
 20
8.100800
 40
0.000000
 41
0.000000
 42
0.000000
  0
VERTEX
  8
BG_SILKSCREEN_TOP
 10
40.880200
 20
8.100800
 40
0.000000
 41
0.000000
 42
0.000000
  0
VERTEX
  8
BG_SILKSCREEN_TOP
 10
40.880200
 20
7.819000
 40
0.000000
 41
0.000000
 42
0.000000
  0
VERTEX
  8
BG_SILKSCREEN_TOP
 10
41.077400
 20
7.819000
 40
0.000000
 41
0.000000
 42
0.000000
  0
VERTEX
  8
BG_SILKSCREEN_TOP
 10
41.077200
 20
7.758800
 40
0.000000
 41
0.000000
 42
0.000000
  0
VERTEX
  8
BG_SILKSCREEN_TOP
 10
41.077200
 20
7.638200
 40
0.000000
 41
0.000000
 42
0.000000
  0
VERTEX
  8
BG_SILKSCREEN_TOP
 10
41.076400
 20
7.578000
 40
0.000000
 41
0.000000
 42
0.000000
  0
VERTEX
  8
BG_SILKSCREEN_TOP
 10
41.073000
 20
7.518000
 40
0.000000
 41
0.000000
 42
0.000000
  0
VERTEX
  8
BG_SILKSCREEN_TOP
 10
41.066600
 20
7.458200
 40
0.000000
 41
0.000000
 42
0.000000
  0
VERTEX
  8
BG_SILKSCREEN_TOP
 10
41.048600
 20
7.401400
 40
0.000000
 41
0.000000
 42
0.000000
  0
VERTEX
  8
BG_SILKSCREEN_TOP
 10
41.015400
 20
7.353600
 40
0.000000
 41
0.000000
 42
0.000000
  0
VERTEX
  8
BG_SILKSCREEN_TOP
 10
40.965200
 20
7.325600
 40
0.000000
 41
0.000000
 42
0.000000
  0
VERTEX
  8
BG_SILKSCREEN_TOP
 10
40.909600
 20
7.313800
 40
0.000000
 41
0.000000
 42
0.000000
  0
VERTEX
  8
BG_SILKSCREEN_TOP
 10
40.853200
 20
7.312800
 40
0.000000
 41
0.000000
 42
0.000000
  0
VERTEX
  8
BG_SILKSCREEN_TOP
 10
40.797600
 20
7.321400
 40
0.000000
 41
0.000000
 42
0.000000
  0
VERTEX
  8
BG_SILKSCREEN_TOP
 10
40.745600
 20
7.342200
 40
0.000000
 41
0.000000
 42
0.000000
  0
VERTEX
  8
BG_SILKSCREEN_TOP
 10
40.702800
 20
7.377400
 40
0.000000
 41
0.000000
 42
0.000000
  0
VERTEX
  8
BG_SILKSCREEN_TOP
 10
40.677600
 20
7.426000
 40
0.000000
 41
0.000000
 42
0.000000
  0
VERTEX
  8
BG_SILKSCREEN_TOP
 10
40.665800
 20
7.479200
 40
0.000000
 41
0.000000
 42
0.000000
  0
VERTEX
  8
BG_SILKSCREEN_TOP
 10
40.660600
 20
7.533400
 40
0.000000
 41
0.000000
 42
0.000000
  0
VERTEX
  8
BG_SILKSCREEN_TOP
 10
40.657600
 20
7.587800
 40
0.000000
 41
0.000000
 42
0.000000
  0
VERTEX
  8
BG_SILKSCREEN_TOP
 10
40.656200
 20
7.642200
 40
0.000000
 41
0.000000
 42
0.000000
  0
VERTEX
  8
BG_SILKSCREEN_TOP
 10
40.655400
 20
7.751000
 40
0.000000
 41
0.000000
 42
0.000000
  0
VERTEX
  8
BG_SILKSCREEN_TOP
 10
40.654800
 20
7.914200
 40
0.000000
 41
0.000000
 42
0.000000
  0
VERTEX
  8
BG_SILKSCREEN_TOP
 10
40.654800
 20
8.077600
 40
0.000000
 41
0.000000
 42
0.000000
  0
VERTEX
  8
BG_SILKSCREEN_TOP
 10
40.655600
 20
8.295200
 40
0.000000
 41
0.000000
 42
0.000000
  0
VERTEX
  8
BG_SILKSCREEN_TOP
 10
40.656000
 20
8.349600
 40
0.000000
 41
0.000000
 42
0.000000
  0
VERTEX
  8
BG_SILKSCREEN_TOP
 10
40.656800
 20
8.404000
 40
0.000000
 41
0.000000
 42
0.000000
  0
VERTEX
  8
BG_SILKSCREEN_TOP
 10
40.659600
 20
8.458200
 40
0.000000
 41
0.000000
 42
0.000000
  0
VERTEX
  8
BG_SILKSCREEN_TOP
 10
40.664600
 20
8.512400
 40
0.000000
 41
0.000000
 42
0.000000
  0
VERTEX
  8
BG_SILKSCREEN_TOP
 10
40.677600
 20
8.564800
 40
0.000000
 41
0.000000
 42
0.000000
  0
VERTEX
  8
BG_SILKSCREEN_TOP
 10
40.702800
 20
8.612000
 40
0.000000
 41
0.000000
 42
0.000000
  0
VERTEX
  8
BG_SILKSCREEN_TOP
 10
40.740800
 20
8.648600
 40
0.000000
 41
0.000000
 42
0.000000
  0
VERTEX
  8
BG_SILKSCREEN_TOP
 10
40.786400
 20
8.675000
 40
0.000000
 41
0.000000
 42
0.000000
  0
VERTEX
  8
BG_SILKSCREEN_TOP
 10
40.836200
 20
8.690600
 40
0.000000
 41
0.000000
 42
0.000000
  0
VERTEX
  8
BG_SILKSCREEN_TOP
 10
40.886800
 20
8.693600
 40
0.000000
 41
0.000000
 42
0.000000
  0
VERTEX
  8
BG_SILKSCREEN_TOP
 10
40.936800
 20
8.682800
 40
0.000000
 41
0.000000
 42
0.000000
  0
VERTEX
  8
BG_SILKSCREEN_TOP
 10
40.980600
 20
8.660200
 40
0.000000
 41
0.000000
 42
0.000000
  0
VERTEX
  8
BG_SILKSCREEN_TOP
 10
41.017800
 20
8.627800
 40
0.000000
 41
0.000000
 42
0.000000
  0
VERTEX
  8
BG_SILKSCREEN_TOP
 10
41.045800
 20
8.587600
 40
0.000000
 41
0.000000
 42
0.000000
  0
VERTEX
  8
BG_SILKSCREEN_TOP
 10
41.064400
 20
8.543600
 40
0.000000
 41
0.000000
 42
0.000000
  0
VERTEX
  8
BG_SILKSCREEN_TOP
 10
41.075000
 20
8.496600
 40
0.000000
 41
0.000000
 42
0.000000
  0
VERTEX
  8
BG_SILKSCREEN_TOP
 10
41.077400
 20
8.449000
 40
0.000000
 41
0.000000
 42
0.000000
  0
VERTEX
  8
BG_SILKSCREEN_TOP
 10
41.077400
 20
8.354200
 40
0.000000
 41
0.000000
 42
0.000000
  0
VERTEX
  8
BG_SILKSCREEN_TOP
 10
41.584400
 20
8.354200
 40
0.000000
 41
0.000000
 42
0.000000
  0
VERTEX
  8
BG_SILKSCREEN_TOP
 10
41.584200
 20
8.379800
 40
0.000000
 41
0.000000
 42
0.000000
  0
VERTEX
  8
BG_SILKSCREEN_TOP
 10
41.584000
 20
8.405200
 40
0.000000
 41
0.000000
 42
0.000000
  0
VERTEX
  8
BG_SILKSCREEN_TOP
 10
41.584000
 20
8.430600
 40
0.000000
 41
0.000000
 42
0.000000
  0
VERTEX
  8
BG_SILKSCREEN_TOP
 10
41.583800
 20
8.456200
 40
0.000000
 41
0.000000
 42
0.000000
  0
VERTEX
  8
BG_SILKSCREEN_TOP
 10
41.583600
 20
8.481600
 40
0.000000
 41
0.000000
 42
0.000000
  0
VERTEX
  8
BG_SILKSCREEN_TOP
 10
41.582600
 20
8.507000
 40
0.000000
 41
0.000000
 42
0.000000
  0
VERTEX
  8
BG_SILKSCREEN_TOP
 10
41.580400
 20
8.532200
 40
0.000000
 41
0.000000
 42
0.000000
  0
VERTEX
  8
BG_SILKSCREEN_TOP
 10
41.577000
 20
8.557400
 40
0.000000
 41
0.000000
 42
0.000000
  0
VERTEX
  8
BG_SILKSCREEN_TOP
 10
41.572600
 20
8.582600
 40
0.000000
 41
0.000000
 42
0.000000
  0
VERTEX
  8
BG_SILKSCREEN_TOP
 10
41.567000
 20
8.607400
 40
0.000000
 41
0.000000
 42
0.000000
  0
VERTEX
  8
BG_SILKSCREEN_TOP
 10
41.560400
 20
8.631800
 40
0.000000
 41
0.000000
 42
0.000000
  0
VERTEX
  8
BG_SILKSCREEN_TOP
 10
41.552600
 20
8.655800
 40
0.000000
 41
0.000000
 42
0.000000
  0
VERTEX
  8
BG_SILKSCREEN_TOP
 10
41.543800
 20
8.679400
 40
0.000000
 41
0.000000
 42
0.000000
  0
VERTEX
  8
BG_SILKSCREEN_TOP
 10
41.534000
 20
8.702600
 40
0.000000
 41
0.000000
 42
0.000000
  0
VERTEX
  8
BG_SILKSCREEN_TOP
 10
41.523000
 20
8.725400
 40
0.000000
 41
0.000000
 42
0.000000
  0
VERTEX
  8
BG_SILKSCREEN_TOP
 10
41.511000
 20
8.747600
 40
0.000000
 41
0.000000
 42
0.000000
  0
VERTEX
  8
BG_SILKSCREEN_TOP
 10
41.498200
 20
8.769200
 40
0.000000
 41
0.000000
 42
0.000000
  0
VERTEX
  8
BG_SILKSCREEN_TOP
 10
41.484200
 20
8.790200
 40
0.000000
 41
0.000000
 42
0.000000
  0
VERTEX
  8
BG_SILKSCREEN_TOP
 10
41.469600
 20
8.810200
 40
0.000000
 41
0.000000
 42
0.000000
  0
VERTEX
  8
BG_SILKSCREEN_TOP
 10
41.453800
 20
8.829800
 40
0.000000
 41
0.000000
 42
0.000000
  0
VERTEX
  8
BG_SILKSCREEN_TOP
 10
41.437400
 20
8.848600
 40
0.000000
 41
0.000000
 42
0.000000
  0
VERTEX
  8
BG_SILKSCREEN_TOP
 10
41.420000
 20
8.866800
 40
0.000000
 41
0.000000
 42
0.000000
  0
VERTEX
  8
BG_SILKSCREEN_TOP
 10
41.401800
 20
8.884000
 40
0.000000
 41
0.000000
 42
0.000000
  0
VERTEX
  8
BG_SILKSCREEN_TOP
 10
41.382800
 20
8.900400
 40
0.000000
 41
0.000000
 42
0.000000
  0
VERTEX
  8
BG_SILKSCREEN_TOP
 10
41.363400
 20
8.915800
 40
0.000000
 41
0.000000
 42
0.000000
  0
VERTEX
  8
BG_SILKSCREEN_TOP
 10
41.343200
 20
8.930400
 40
0.000000
 41
0.000000
 42
0.000000
  0
VERTEX
  8
BG_SILKSCREEN_TOP
 10
41.322400
 20
8.944000
 40
0.000000
 41
0.000000
 42
0.000000
  0
VERTEX
  8
BG_SILKSCREEN_TOP
 10
41.301200
 20
8.956800
 40
0.000000
 41
0.000000
 42
0.000000
  0
VERTEX
  8
BG_SILKSCREEN_TOP
 10
41.279200
 20
8.968600
 40
0.000000
 41
0.000000
 42
0.000000
  0
VERTEX
  8
BG_SILKSCREEN_TOP
 10
41.256800
 20
8.979400
 40
0.000000
 41
0.000000
 42
0.000000
  0
VERTEX
  8
BG_SILKSCREEN_TOP
 10
41.234000
 20
8.989000
 40
0.000000
 41
0.000000
 42
0.000000
  0
VERTEX
  8
BG_SILKSCREEN_TOP
 10
41.211000
 20
8.997800
 40
0.000000
 41
0.000000
 42
0.000000
  0
VERTEX
  8
BG_SILKSCREEN_TOP
 10
41.187400
 20
9.005400
 40
0.000000
 41
0.000000
 42
0.000000
  0
VERTEX
  8
BG_SILKSCREEN_TOP
 10
41.163600
 20
9.012000
 40
0.000000
 41
0.000000
 42
0.000000
  0
VERTEX
  8
BG_SILKSCREEN_TOP
 10
41.139400
 20
9.017400
 40
0.000000
 41
0.000000
 42
0.000000
  0
VERTEX
  8
BG_SILKSCREEN_TOP
 10
41.115200
 20
9.021600
 40
0.000000
 41
0.000000
 42
0.000000
  0
VERTEX
  8
BG_SILKSCREEN_TOP
 10
41.090800
 20
9.025400
 40
0.000000
 41
0.000000
 42
0.000000
  0
VERTEX
  8
BG_SILKSCREEN_TOP
 10
41.066400
 20
9.028800
 40
0.000000
 41
0.000000
 42
0.000000
  0
VERTEX
  8
BG_SILKSCREEN_TOP
 10
41.042000
 20
9.032000
 40
0.000000
 41
0.000000
 42
0.000000
  0
VERTEX
  8
BG_SILKSCREEN_TOP
 10
41.017400
 20
9.034800
 40
0.000000
 41
0.000000
 42
0.000000
  0
VERTEX
  8
BG_SILKSCREEN_TOP
 10
40.993000
 20
9.037400
 40
0.000000
 41
0.000000
 42
0.000000
  0
VERTEX
  8
BG_SILKSCREEN_TOP
 10
40.968400
 20
9.039600
 40
0.000000
 41
0.000000
 42
0.000000
  0
VERTEX
  8
BG_SILKSCREEN_TOP
 10
40.943800
 20
9.041400
 40
0.000000
 41
0.000000
 42
0.000000
  0
VERTEX
  8
BG_SILKSCREEN_TOP
 10
40.919200
 20
9.043000
 40
0.000000
 41
0.000000
 42
0.000000
  0
VERTEX
  8
BG_SILKSCREEN_TOP
 10
40.894600
 20
9.044400
 40
0.000000
 41
0.000000
 42
0.000000
  0
VERTEX
  8
BG_SILKSCREEN_TOP
 10
40.870000
 20
9.045400
 40
0.000000
 41
0.000000
 42
0.000000
  0
VERTEX
  8
BG_SILKSCREEN_TOP
 10
40.845400
 20
9.046000
 40
0.000000
 41
0.000000
 42
0.000000
  0
VERTEX
  8
BG_SILKSCREEN_TOP
 10
40.820800
 20
9.046400
 40
0.000000
 41
0.000000
 42
0.000000
  0
VERTEX
  8
BG_SILKSCREEN_TOP
 10
40.796200
 20
9.046400
 40
0.000000
 41
0.000000
 42
0.000000
  0
VERTEX
  8
BG_SILKSCREEN_TOP
 10
40.771600
 20
9.046200
 40
0.000000
 41
0.000000
 42
0.000000
  0
SEQEND
  0
POLYLINE
  8
BG_SILKSCREEN_TOP
 66
1
 70
1
 40
0.000000
 41
0.000000
 39
0.000000
  0
VERTEX
  8
BG_SILKSCREEN_TOP
 10
30.517000
 20
8.988600
 40
0.000000
 41
0.000000
 42
0.000000
  0
VERTEX
  8
BG_SILKSCREEN_TOP
 10
30.499400
 20
8.989000
 40
0.000000
 41
0.000000
 42
0.000000
  0
VERTEX
  8
BG_SILKSCREEN_TOP
 10
30.482000
 20
8.989200
 40
0.000000
 41
0.000000
 42
0.000000
  0
VERTEX
  8
BG_SILKSCREEN_TOP
 10
30.464400
 20
8.989600
 40
0.000000
 41
0.000000
 42
0.000000
  0
VERTEX
  8
BG_SILKSCREEN_TOP
 10
30.446800
 20
8.989800
 40
0.000000
 41
0.000000
 42
0.000000
  0
VERTEX
  8
BG_SILKSCREEN_TOP
 10
30.429200
 20
8.990200
 40
0.000000
 41
0.000000
 42
0.000000
  0
VERTEX
  8
BG_SILKSCREEN_TOP
 10
30.411800
 20
8.990600
 40
0.000000
 41
0.000000
 42
0.000000
  0
VERTEX
  8
BG_SILKSCREEN_TOP
 10
30.394200
 20
8.990800
 40
0.000000
 41
0.000000
 42
0.000000
  0
VERTEX
  8
BG_SILKSCREEN_TOP
 10
30.376600
 20
8.991200
 40
0.000000
 41
0.000000
 42
0.000000
  0
VERTEX
  8
BG_SILKSCREEN_TOP
 10
30.359200
 20
8.991400
 40
0.000000
 41
0.000000
 42
0.000000
  0
VERTEX
  8
BG_SILKSCREEN_TOP
 10
30.341600
 20
8.991800
 40
0.000000
 41
0.000000
 42
0.000000
  0
VERTEX
  8
BG_SILKSCREEN_TOP
 10
30.324000
 20
8.992000
 40
0.000000
 41
0.000000
 42
0.000000
  0
VERTEX
  8
BG_SILKSCREEN_TOP
 10
30.306400
 20
8.992400
 40
0.000000
 41
0.000000
 42
0.000000
  0
VERTEX
  8
BG_SILKSCREEN_TOP
 10
30.289000
 20
8.992600
 40
0.000000
 41
0.000000
 42
0.000000
  0
VERTEX
  8
BG_SILKSCREEN_TOP
 10
30.271400
 20
8.993000
 40
0.000000
 41
0.000000
 42
0.000000
  0
VERTEX
  8
BG_SILKSCREEN_TOP
 10
30.253800
 20
8.993200
 40
0.000000
 41
0.000000
 42
0.000000
  0
VERTEX
  8
BG_SILKSCREEN_TOP
 10
30.236200
 20
8.993600
 40
0.000000
 41
0.000000
 42
0.000000
  0
VERTEX
  8
BG_SILKSCREEN_TOP
 10
30.218800
 20
8.994000
 40
0.000000
 41
0.000000
 42
0.000000
  0
VERTEX
  8
BG_SILKSCREEN_TOP
 10
30.201200
 20
8.994200
 40
0.000000
 41
0.000000
 42
0.000000
  0
VERTEX
  8
BG_SILKSCREEN_TOP
 10
30.183600
 20
8.994600
 40
0.000000
 41
0.000000
 42
0.000000
  0
VERTEX
  8
BG_SILKSCREEN_TOP
 10
30.166000
 20
8.994800
 40
0.000000
 41
0.000000
 42
0.000000
  0
VERTEX
  8
BG_SILKSCREEN_TOP
 10
30.148600
 20
8.995200
 40
0.000000
 41
0.000000
 42
0.000000
  0
VERTEX
  8
BG_SILKSCREEN_TOP
 10
30.131000
 20
8.995400
 40
0.000000
 41
0.000000
 42
0.000000
  0
VERTEX
  8
BG_SILKSCREEN_TOP
 10
30.113400
 20
8.995800
 40
0.000000
 41
0.000000
 42
0.000000
  0
VERTEX
  8
BG_SILKSCREEN_TOP
 10
30.096000
 20
8.996000
 40
0.000000
 41
0.000000
 42
0.000000
  0
VERTEX
  8
BG_SILKSCREEN_TOP
 10
30.078400
 20
8.996400
 40
0.000000
 41
0.000000
 42
0.000000
  0
VERTEX
  8
BG_SILKSCREEN_TOP
 10
30.060800
 20
8.996600
 40
0.000000
 41
0.000000
 42
0.000000
  0
VERTEX
  8
BG_SILKSCREEN_TOP
 10
30.043200
 20
8.997000
 40
0.000000
 41
0.000000
 42
0.000000
  0
VERTEX
  8
BG_SILKSCREEN_TOP
 10
30.025800
 20
8.997200
 40
0.000000
 41
0.000000
 42
0.000000
  0
VERTEX
  8
BG_SILKSCREEN_TOP
 10
30.008200
 20
8.997400
 40
0.000000
 41
0.000000
 42
0.000000
  0
VERTEX
  8
BG_SILKSCREEN_TOP
 10
29.990600
 20
8.997800
 40
0.000000
 41
0.000000
 42
0.000000
  0
VERTEX
  8
BG_SILKSCREEN_TOP
 10
29.973000
 20
8.998000
 40
0.000000
 41
0.000000
 42
0.000000
  0
VERTEX
  8
BG_SILKSCREEN_TOP
 10
29.955600
 20
8.998200
 40
0.000000
 41
0.000000
 42
0.000000
  0
VERTEX
  8
BG_SILKSCREEN_TOP
 10
29.902800
 20
8.998800
 40
0.000000
 41
0.000000
 42
0.000000
  0
VERTEX
  8
BG_SILKSCREEN_TOP
 10
29.885400
 20
8.999000
 40
0.000000
 41
0.000000
 42
0.000000
  0
VERTEX
  8
BG_SILKSCREEN_TOP
 10
29.850200
 20
8.999400
 40
0.000000
 41
0.000000
 42
0.000000
  0
VERTEX
  8
BG_SILKSCREEN_TOP
 10
29.832800
 20
8.999600
 40
0.000000
 41
0.000000
 42
0.000000
  0
VERTEX
  8
BG_SILKSCREEN_TOP
 10
29.815200
 20
8.999800
 40
0.000000
 41
0.000000
 42
0.000000
  0
VERTEX
  8
BG_SILKSCREEN_TOP
 10
29.797600
 20
8.999600
 40
0.000000
 41
0.000000
 42
0.000000
  0
VERTEX
  8
BG_SILKSCREEN_TOP
 10
29.780000
 20
8.999000
 40
0.000000
 41
0.000000
 42
0.000000
  0
VERTEX
  8
BG_SILKSCREEN_TOP
 10
29.762600
 20
8.998000
 40
0.000000
 41
0.000000
 42
0.000000
  0
VERTEX
  8
BG_SILKSCREEN_TOP
 10
29.745000
 20
8.996600
 40
0.000000
 41
0.000000
 42
0.000000
  0
VERTEX
  8
BG_SILKSCREEN_TOP
 10
29.727600
 20
8.994800
 40
0.000000
 41
0.000000
 42
0.000000
  0
VERTEX
  8
BG_SILKSCREEN_TOP
 10
29.710600
 20
8.991600
 40
0.000000
 41
0.000000
 42
0.000000
  0
VERTEX
  8
BG_SILKSCREEN_TOP
 10
29.694200
 20
8.985200
 40
0.000000
 41
0.000000
 42
0.000000
  0
VERTEX
  8
BG_SILKSCREEN_TOP
 10
29.679400
 20
8.976200
 40
0.000000
 41
0.000000
 42
0.000000
  0
VERTEX
  8
BG_SILKSCREEN_TOP
 10
29.653800
 20
8.931800
 40
0.000000
 41
0.000000
 42
0.000000
  0
VERTEX
  8
BG_SILKSCREEN_TOP
 10
29.642400
 20
8.881200
 40
0.000000
 41
0.000000
 42
0.000000
  0
VERTEX
  8
BG_SILKSCREEN_TOP
 10
29.632000
 20
8.830600
 40
0.000000
 41
0.000000
 42
0.000000
  0
VERTEX
  8
BG_SILKSCREEN_TOP
 10
29.622200
 20
8.779800
 40
0.000000
 41
0.000000
 42
0.000000
  0
VERTEX
  8
BG_SILKSCREEN_TOP
 10
29.612800
 20
8.728800
 40
0.000000
 41
0.000000
 42
0.000000
  0
VERTEX
  8
BG_SILKSCREEN_TOP
 10
29.594000
 20
8.627200
 40
0.000000
 41
0.000000
 42
0.000000
  0
VERTEX
  8
BG_SILKSCREEN_TOP
 10
29.584600
 20
8.576200
 40
0.000000
 41
0.000000
 42
0.000000
  0
VERTEX
  8
BG_SILKSCREEN_TOP
 10
29.575200
 20
8.525400
 40
0.000000
 41
0.000000
 42
0.000000
  0
VERTEX
  8
BG_SILKSCREEN_TOP
 10
29.565800
 20
8.474400
 40
0.000000
 41
0.000000
 42
0.000000
  0
VERTEX
  8
BG_SILKSCREEN_TOP
 10
29.556200
 20
8.423600
 40
0.000000
 41
0.000000
 42
0.000000
  0
VERTEX
  8
BG_SILKSCREEN_TOP
 10
29.546800
 20
8.372800
 40
0.000000
 41
0.000000
 42
0.000000
  0
VERTEX
  8
BG_SILKSCREEN_TOP
 10
29.537400
 20
8.321800
 40
0.000000
 41
0.000000
 42
0.000000
  0
VERTEX
  8
BG_SILKSCREEN_TOP
 10
29.518600
 20
8.220200
 40
0.000000
 41
0.000000
 42
0.000000
  0
VERTEX
  8
BG_SILKSCREEN_TOP
 10
29.509200
 20
8.169200
 40
0.000000
 41
0.000000
 42
0.000000
  0
VERTEX
  8
BG_SILKSCREEN_TOP
 10
29.499600
 20
8.118400
 40
0.000000
 41
0.000000
 42
0.000000
  0
VERTEX
  8
BG_SILKSCREEN_TOP
 10
29.490200
 20
8.067400
 40
0.000000
 41
0.000000
 42
0.000000
  0
VERTEX
  8
BG_SILKSCREEN_TOP
 10
29.471400
 20
7.965800
 40
0.000000
 41
0.000000
 42
0.000000
  0
VERTEX
  8
BG_SILKSCREEN_TOP
 10
29.462000
 20
7.914800
 40
0.000000
 41
0.000000
 42
0.000000
  0
VERTEX
  8
BG_SILKSCREEN_TOP
 10
29.452600
 20
7.864000
 40
0.000000
 41
0.000000
 42
0.000000
  0
VERTEX
  8
BG_SILKSCREEN_TOP
 10
29.443200
 20
7.813000
 40
0.000000
 41
0.000000
 42
0.000000
  0
VERTEX
  8
BG_SILKSCREEN_TOP
 10
29.424400
 20
7.711400
 40
0.000000
 41
0.000000
 42
0.000000
  0
VERTEX
  8
BG_SILKSCREEN_TOP
 10
29.415000
 20
7.660400
 40
0.000000
 41
0.000000
 42
0.000000
  0
VERTEX
  8
BG_SILKSCREEN_TOP
 10
29.405800
 20
7.609600
 40
0.000000
 41
0.000000
 42
0.000000
  0
VERTEX
  8
BG_SILKSCREEN_TOP
 10
29.396400
 20
7.558600
 40
0.000000
 41
0.000000
 42
0.000000
  0
VERTEX
  8
BG_SILKSCREEN_TOP
 10
29.377600
 20
7.457000
 40
0.000000
 41
0.000000
 42
0.000000
  0
VERTEX
  8
BG_SILKSCREEN_TOP
 10
29.368200
 20
7.406000
 40
0.000000
 41
0.000000
 42
0.000000
  0
VERTEX
  8
BG_SILKSCREEN_TOP
 10
29.358800
 20
7.355200
 40
0.000000
 41
0.000000
 42
0.000000
  0
VERTEX
  8
BG_SILKSCREEN_TOP
 10
29.349400
 20
7.304200
 40
0.000000
 41
0.000000
 42
0.000000
  0
VERTEX
  8
BG_SILKSCREEN_TOP
 10
29.330600
 20
7.202600
 40
0.000000
 41
0.000000
 42
0.000000
  0
VERTEX
  8
BG_SILKSCREEN_TOP
 10
29.321200
 20
7.151600
 40
0.000000
 41
0.000000
 42
0.000000
  0
VERTEX
  8
BG_SILKSCREEN_TOP
 10
29.311800
 20
7.100800
 40
0.000000
 41
0.000000
 42
0.000000
  0
VERTEX
  8
BG_SILKSCREEN_TOP
 10
29.303600
 20
7.049600
 40
0.000000
 41
0.000000
 42
0.000000
  0
VERTEX
  8
BG_SILKSCREEN_TOP
 10
29.326000
 20
7.016400
 40
0.000000
 41
0.000000
 42
0.000000
  0
VERTEX
  8
BG_SILKSCREEN_TOP
 10
29.371000
 20
7.010400
 40
0.000000
 41
0.000000
 42
0.000000
  0
VERTEX
  8
BG_SILKSCREEN_TOP
 10
29.416400
 20
7.006200
 40
0.000000
 41
0.000000
 42
0.000000
  0
VERTEX
  8
BG_SILKSCREEN_TOP
 10
29.462000
 20
7.003800
 40
0.000000
 41
0.000000
 42
0.000000
  0
VERTEX
  8
BG_SILKSCREEN_TOP
 10
29.507600
 20
7.002600
 40
0.000000
 41
0.000000
 42
0.000000
  0
VERTEX
  8
BG_SILKSCREEN_TOP
 10
29.553000
 20
7.002200
 40
0.000000
 41
0.000000
 42
0.000000
  0
VERTEX
  8
BG_SILKSCREEN_TOP
 10
29.826400
 20
7.002200
 40
0.000000
 41
0.000000
 42
0.000000
  0
VERTEX
  8
BG_SILKSCREEN_TOP
 10
29.837000
 20
7.072600
 40
0.000000
 41
0.000000
 42
0.000000
  0
VERTEX
  8
BG_SILKSCREEN_TOP
 10
29.847600
 20
7.143200
 40
0.000000
 41
0.000000
 42
0.000000
  0
VERTEX
  8
BG_SILKSCREEN_TOP
 10
29.858000
 20
7.213800
 40
0.000000
 41
0.000000
 42
0.000000
  0
VERTEX
  8
BG_SILKSCREEN_TOP
 10
29.868600
 20
7.284200
 40
0.000000
 41
0.000000
 42
0.000000
  0
VERTEX
  8
BG_SILKSCREEN_TOP
 10
29.889800
 20
7.425400
 40
0.000000
 41
0.000000
 42
0.000000
  0
VERTEX
  8
BG_SILKSCREEN_TOP
 10
29.900200
 20
7.496000
 40
0.000000
 41
0.000000
 42
0.000000
  0
VERTEX
  8
BG_SILKSCREEN_TOP
 10
29.910800
 20
7.566400
 40
0.000000
 41
0.000000
 42
0.000000
  0
VERTEX
  8
BG_SILKSCREEN_TOP
 10
29.932000
 20
7.707600
 40
0.000000
 41
0.000000
 42
0.000000
  0
VERTEX
  8
BG_SILKSCREEN_TOP
 10
29.942600
 20
7.778000
 40
0.000000
 41
0.000000
 42
0.000000
  0
VERTEX
  8
BG_SILKSCREEN_TOP
 10
29.963800
 20
7.919200
 40
0.000000
 41
0.000000
 42
0.000000
  0
VERTEX
  8
BG_SILKSCREEN_TOP
 10
29.974400
 20
7.989600
 40
0.000000
 41
0.000000
 42
0.000000
  0
VERTEX
  8
BG_SILKSCREEN_TOP
 10
29.985000
 20
8.060200
 40
0.000000
 41
0.000000
 42
0.000000
  0
VERTEX
  8
BG_SILKSCREEN_TOP
 10
29.995800
 20
8.130600
 40
0.000000
 41
0.000000
 42
0.000000
  0
VERTEX
  8
BG_SILKSCREEN_TOP
 10
30.006600
 20
8.201200
 40
0.000000
 41
0.000000
 42
0.000000
  0
VERTEX
  8
BG_SILKSCREEN_TOP
 10
30.017200
 20
8.271800
 40
0.000000
 41
0.000000
 42
0.000000
  0
VERTEX
  8
BG_SILKSCREEN_TOP
 10
30.028200
 20
8.342200
 40
0.000000
 41
0.000000
 42
0.000000
  0
VERTEX
  8
BG_SILKSCREEN_TOP
 10
30.039000
 20
8.412600
 40
0.000000
 41
0.000000
 42
0.000000
  0
VERTEX
  8
BG_SILKSCREEN_TOP
 10
30.050600
 20
8.483000
 40
0.000000
 41
0.000000
 42
0.000000
  0
VERTEX
  8
BG_SILKSCREEN_TOP
 10
30.062800
 20
8.553400
 40
0.000000
 41
0.000000
 42
0.000000
  0
VERTEX
  8
BG_SILKSCREEN_TOP
 10
30.075800
 20
8.623400
 40
0.000000
 41
0.000000
 42
0.000000
  0
VERTEX
  8
BG_SILKSCREEN_TOP
 10
30.091000
 20
8.693200
 40
0.000000
 41
0.000000
 42
0.000000
  0
VERTEX
  8
BG_SILKSCREEN_TOP
 10
30.117800
 20
8.756000
 40
0.000000
 41
0.000000
 42
0.000000
  0
VERTEX
  8
BG_SILKSCREEN_TOP
 10
30.142000
 20
8.691400
 40
0.000000
 41
0.000000
 42
0.000000
  0
VERTEX
  8
BG_SILKSCREEN_TOP
 10
30.152400
 20
8.621200
 40
0.000000
 41
0.000000
 42
0.000000
  0
VERTEX
  8
BG_SILKSCREEN_TOP
 10
30.162800
 20
8.550800
 40
0.000000
 41
0.000000
 42
0.000000
  0
VERTEX
  8
BG_SILKSCREEN_TOP
 10
30.173000
 20
8.480400
 40
0.000000
 41
0.000000
 42
0.000000
  0
VERTEX
  8
BG_SILKSCREEN_TOP
 10
30.183400
 20
8.410200
 40
0.000000
 41
0.000000
 42
0.000000
  0
VERTEX
  8
BG_SILKSCREEN_TOP
 10
30.193800
 20
8.339800
 40
0.000000
 41
0.000000
 42
0.000000
  0
VERTEX
  8
BG_SILKSCREEN_TOP
 10
30.204200
 20
8.269600
 40
0.000000
 41
0.000000
 42
0.000000
  0
VERTEX
  8
BG_SILKSCREEN_TOP
 10
30.214600
 20
8.199200
 40
0.000000
 41
0.000000
 42
0.000000
  0
VERTEX
  8
BG_SILKSCREEN_TOP
 10
30.235000
 20
8.058400
 40
0.000000
 41
0.000000
 42
0.000000
  0
VERTEX
  8
BG_SILKSCREEN_TOP
 10
30.245200
 20
7.988200
 40
0.000000
 41
0.000000
 42
0.000000
  0
VERTEX
  8
BG_SILKSCREEN_TOP
 10
30.265600
 20
7.847400
 40
0.000000
 41
0.000000
 42
0.000000
  0
VERTEX
  8
BG_SILKSCREEN_TOP
 10
30.285600
 20
7.706600
 40
0.000000
 41
0.000000
 42
0.000000
  0
VERTEX
  8
BG_SILKSCREEN_TOP
 10
30.315000
 20
7.495400
 40
0.000000
 41
0.000000
 42
0.000000
  0
VERTEX
  8
BG_SILKSCREEN_TOP
 10
30.324600
 20
7.425000
 40
0.000000
 41
0.000000
 42
0.000000
  0
VERTEX
  8
BG_SILKSCREEN_TOP
 10
30.334000
 20
7.354600
 40
0.000000
 41
0.000000
 42
0.000000
  0
VERTEX
  8
BG_SILKSCREEN_TOP
 10
30.343400
 20
7.284000
 40
0.000000
 41
0.000000
 42
0.000000
  0
VERTEX
  8
BG_SILKSCREEN_TOP
 10
30.352800
 20
7.213600
 40
0.000000
 41
0.000000
 42
0.000000
  0
VERTEX
  8
BG_SILKSCREEN_TOP
 10
30.362000
 20
7.143200
 40
0.000000
 41
0.000000
 42
0.000000
  0
VERTEX
  8
BG_SILKSCREEN_TOP
 10
30.371200
 20
7.072600
 40
0.000000
 41
0.000000
 42
0.000000
  0
VERTEX
  8
BG_SILKSCREEN_TOP
 10
30.380600
 20
7.002200
 40
0.000000
 41
0.000000
 42
0.000000
  0
VERTEX
  8
BG_SILKSCREEN_TOP
 10
30.656200
 20
7.002200
 40
0.000000
 41
0.000000
 42
0.000000
  0
VERTEX
  8
BG_SILKSCREEN_TOP
 10
30.711400
 20
7.002600
 40
0.000000
 41
0.000000
 42
0.000000
  0
VERTEX
  8
BG_SILKSCREEN_TOP
 10
30.766600
 20
7.003600
 40
0.000000
 41
0.000000
 42
0.000000
  0
VERTEX
  8
BG_SILKSCREEN_TOP
 10
30.821600
 20
7.007000
 40
0.000000
 41
0.000000
 42
0.000000
  0
VERTEX
  8
BG_SILKSCREEN_TOP
 10
30.876000
 20
7.015200
 40
0.000000
 41
0.000000
 42
0.000000
  0
VERTEX
  8
BG_SILKSCREEN_TOP
 10
30.906400
 20
7.048200
 40
0.000000
 41
0.000000
 42
0.000000
  0
VERTEX
  8
BG_SILKSCREEN_TOP
 10
30.898400
 20
7.096800
 40
0.000000
 41
0.000000
 42
0.000000
  0
VERTEX
  8
BG_SILKSCREEN_TOP
 10
30.889800
 20
7.145400
 40
0.000000
 41
0.000000
 42
0.000000
  0
VERTEX
  8
BG_SILKSCREEN_TOP
 10
30.881200
 20
7.193800
 40
0.000000
 41
0.000000
 42
0.000000
  0
VERTEX
  8
BG_SILKSCREEN_TOP
 10
30.872400
 20
7.242400
 40
0.000000
 41
0.000000
 42
0.000000
  0
VERTEX
  8
BG_SILKSCREEN_TOP
 10
30.863800
 20
7.291000
 40
0.000000
 41
0.000000
 42
0.000000
  0
VERTEX
  8
BG_SILKSCREEN_TOP
 10
30.855000
 20
7.339400
 40
0.000000
 41
0.000000
 42
0.000000
  0
VERTEX
  8
BG_SILKSCREEN_TOP
 10
30.846400
 20
7.388000
 40
0.000000
 41
0.000000
 42
0.000000
  0
VERTEX
  8
BG_SILKSCREEN_TOP
 10
30.837600
 20
7.436400
 40
0.000000
 41
0.000000
 42
0.000000
  0
VERTEX
  8
BG_SILKSCREEN_TOP
 10
30.828800
 20
7.485000
 40
0.000000
 41
0.000000
 42
0.000000
  0
VERTEX
  8
BG_SILKSCREEN_TOP
 10
30.820000
 20
7.533400
 40
0.000000
 41
0.000000
 42
0.000000
  0
VERTEX
  8
BG_SILKSCREEN_TOP
 10
30.802400
 20
7.630600
 40
0.000000
 41
0.000000
 42
0.000000
  0
VERTEX
  8
BG_SILKSCREEN_TOP
 10
30.793600
 20
7.679000
 40
0.000000
 41
0.000000
 42
0.000000
  0
VERTEX
  8
BG_SILKSCREEN_TOP
 10
30.784600
 20
7.727400
 40
0.000000
 41
0.000000
 42
0.000000
  0
VERTEX
  8
BG_SILKSCREEN_TOP
 10
30.775800
 20
7.776000
 40
0.000000
 41
0.000000
 42
0.000000
  0
VERTEX
  8
BG_SILKSCREEN_TOP
 10
30.766800
 20
7.824400
 40
0.000000
 41
0.000000
 42
0.000000
  0
VERTEX
  8
BG_SILKSCREEN_TOP
 10
30.758000
 20
7.873000
 40
0.000000
 41
0.000000
 42
0.000000
  0
VERTEX
  8
BG_SILKSCREEN_TOP
 10
30.749000
 20
7.921400
 40
0.000000
 41
0.000000
 42
0.000000
  0
VERTEX
  8
BG_SILKSCREEN_TOP
 10
30.740200
 20
7.970000
 40
0.000000
 41
0.000000
 42
0.000000
  0
VERTEX
  8
BG_SILKSCREEN_TOP
 10
30.731200
 20
8.018400
 40
0.000000
 41
0.000000
 42
0.000000
  0
VERTEX
  8
BG_SILKSCREEN_TOP
 10
30.722200
 20
8.067000
 40
0.000000
 41
0.000000
 42
0.000000
  0
VERTEX
  8
BG_SILKSCREEN_TOP
 10
30.713200
 20
8.115400
 40
0.000000
 41
0.000000
 42
0.000000
  0
VERTEX
  8
BG_SILKSCREEN_TOP
 10
30.704400
 20
8.163800
 40
0.000000
 41
0.000000
 42
0.000000
  0
VERTEX
  8
BG_SILKSCREEN_TOP
 10
30.695400
 20
8.212400
 40
0.000000
 41
0.000000
 42
0.000000
  0
VERTEX
  8
BG_SILKSCREEN_TOP
 10
30.686400
 20
8.260800
 40
0.000000
 41
0.000000
 42
0.000000
  0
VERTEX
  8
BG_SILKSCREEN_TOP
 10
30.677400
 20
8.309400
 40
0.000000
 41
0.000000
 42
0.000000
  0
VERTEX
  8
BG_SILKSCREEN_TOP
 10
30.668600
 20
8.357800
 40
0.000000
 41
0.000000
 42
0.000000
  0
VERTEX
  8
BG_SILKSCREEN_TOP
 10
30.659600
 20
8.406200
 40
0.000000
 41
0.000000
 42
0.000000
  0
VERTEX
  8
BG_SILKSCREEN_TOP
 10
30.650600
 20
8.454800
 40
0.000000
 41
0.000000
 42
0.000000
  0
VERTEX
  8
BG_SILKSCREEN_TOP
 10
30.641600
 20
8.503200
 40
0.000000
 41
0.000000
 42
0.000000
  0
VERTEX
  8
BG_SILKSCREEN_TOP
 10
30.632800
 20
8.551800
 40
0.000000
 41
0.000000
 42
0.000000
  0
VERTEX
  8
BG_SILKSCREEN_TOP
 10
30.614800
 20
8.648600
 40
0.000000
 41
0.000000
 42
0.000000
  0
VERTEX
  8
BG_SILKSCREEN_TOP
 10
30.605800
 20
8.697200
 40
0.000000
 41
0.000000
 42
0.000000
  0
VERTEX
  8
BG_SILKSCREEN_TOP
 10
30.596800
 20
8.745600
 40
0.000000
 41
0.000000
 42
0.000000
  0
VERTEX
  8
BG_SILKSCREEN_TOP
 10
30.588000
 20
8.794200
 40
0.000000
 41
0.000000
 42
0.000000
  0
VERTEX
  8
BG_SILKSCREEN_TOP
 10
30.570000
 20
8.891000
 40
0.000000
 41
0.000000
 42
0.000000
  0
VERTEX
  8
BG_SILKSCREEN_TOP
 10
30.561000
 20
8.939600
 40
0.000000
 41
0.000000
 42
0.000000
  0
VERTEX
  8
BG_SILKSCREEN_TOP
 10
30.552200
 20
8.988000
 40
0.000000
 41
0.000000
 42
0.000000
  0
VERTEX
  8
BG_SILKSCREEN_TOP
 10
30.534600
 20
8.988400
 40
0.000000
 41
0.000000
 42
0.000000
  0
SEQEND
  0
POLYLINE
  8
BG_SILKSCREEN_TOP
 66
1
 70
1
 40
0.000000
 41
0.000000
 39
0.000000
  0
VERTEX
  8
BG_SILKSCREEN_TOP
 10
27.882600
 20
9.007600
 40
0.000000
 41
0.000000
 42
0.000000
  0
VERTEX
  8
BG_SILKSCREEN_TOP
 10
27.820800
 20
8.981200
 40
0.000000
 41
0.000000
 42
0.000000
  0
VERTEX
  8
BG_SILKSCREEN_TOP
 10
27.761800
 20
8.950000
 40
0.000000
 41
0.000000
 42
0.000000
  0
VERTEX
  8
BG_SILKSCREEN_TOP
 10
27.707200
 20
8.912000
 40
0.000000
 41
0.000000
 42
0.000000
  0
VERTEX
  8
BG_SILKSCREEN_TOP
 10
27.658400
 20
8.866400
 40
0.000000
 41
0.000000
 42
0.000000
  0
VERTEX
  8
BG_SILKSCREEN_TOP
 10
27.617200
 20
8.815200
 40
0.000000
 41
0.000000
 42
0.000000
  0
VERTEX
  8
BG_SILKSCREEN_TOP
 10
27.583800
 20
8.758400
 40
0.000000
 41
0.000000
 42
0.000000
  0
VERTEX
  8
BG_SILKSCREEN_TOP
 10
27.559400
 20
8.697400
 40
0.000000
 41
0.000000
 42
0.000000
  0
VERTEX
  8
BG_SILKSCREEN_TOP
 10
27.543000
 20
8.634400
 40
0.000000
 41
0.000000
 42
0.000000
  0
VERTEX
  8
BG_SILKSCREEN_TOP
 10
27.532800
 20
8.570200
 40
0.000000
 41
0.000000
 42
0.000000
  0
VERTEX
  8
BG_SILKSCREEN_TOP
 10
27.528400
 20
8.505200
 40
0.000000
 41
0.000000
 42
0.000000
  0
VERTEX
  8
BG_SILKSCREEN_TOP
 10
27.530000
 20
8.440600
 40
0.000000
 41
0.000000
 42
0.000000
  0
VERTEX
  8
BG_SILKSCREEN_TOP
 10
27.538000
 20
8.376400
 40
0.000000
 41
0.000000
 42
0.000000
  0
VERTEX
  8
BG_SILKSCREEN_TOP
 10
27.552200
 20
8.313400
 40
0.000000
 41
0.000000
 42
0.000000
  0
VERTEX
  8
BG_SILKSCREEN_TOP
 10
27.573800
 20
8.253400
 40
0.000000
 41
0.000000
 42
0.000000
  0
VERTEX
  8
BG_SILKSCREEN_TOP
 10
27.604800
 20
8.197200
 40
0.000000
 41
0.000000
 42
0.000000
  0
VERTEX
  8
BG_SILKSCREEN_TOP
 10
27.643600
 20
8.146800
 40
0.000000
 41
0.000000
 42
0.000000
  0
VERTEX
  8
BG_SILKSCREEN_TOP
 10
27.687200
 20
8.100800
 40
0.000000
 41
0.000000
 42
0.000000
  0
VERTEX
  8
BG_SILKSCREEN_TOP
 10
27.735000
 20
8.059200
 40
0.000000
 41
0.000000
 42
0.000000
  0
VERTEX
  8
BG_SILKSCREEN_TOP
 10
27.786200
 20
8.022000
 40
0.000000
 41
0.000000
 42
0.000000
  0
VERTEX
  8
BG_SILKSCREEN_TOP
 10
27.838600
 20
7.986800
 40
0.000000
 41
0.000000
 42
0.000000
  0
VERTEX
  8
BG_SILKSCREEN_TOP
 10
27.891600
 20
7.952600
 40
0.000000
 41
0.000000
 42
0.000000
  0
VERTEX
  8
BG_SILKSCREEN_TOP
 10
27.945200
 20
7.919200
 40
0.000000
 41
0.000000
 42
0.000000
  0
VERTEX
  8
BG_SILKSCREEN_TOP
 10
27.999400
 20
7.887000
 40
0.000000
 41
0.000000
 42
0.000000
  0
VERTEX
  8
BG_SILKSCREEN_TOP
 10
28.054000
 20
7.855400
 40
0.000000
 41
0.000000
 42
0.000000
  0
VERTEX
  8
BG_SILKSCREEN_TOP
 10
28.108200
 20
7.823000
 40
0.000000
 41
0.000000
 42
0.000000
  0
VERTEX
  8
BG_SILKSCREEN_TOP
 10
28.161800
 20
7.789800
 40
0.000000
 41
0.000000
 42
0.000000
  0
VERTEX
  8
BG_SILKSCREEN_TOP
 10
28.215000
 20
7.755600
 40
0.000000
 41
0.000000
 42
0.000000
  0
VERTEX
  8
BG_SILKSCREEN_TOP
 10
28.267400
 20
7.720600
 40
0.000000
 41
0.000000
 42
0.000000
  0
VERTEX
  8
BG_SILKSCREEN_TOP
 10
28.318400
 20
7.684000
 40
0.000000
 41
0.000000
 42
0.000000
  0
VERTEX
  8
BG_SILKSCREEN_TOP
 10
28.365200
 20
7.642200
 40
0.000000
 41
0.000000
 42
0.000000
  0
VERTEX
  8
BG_SILKSCREEN_TOP
 10
28.406200
 20
7.594800
 40
0.000000
 41
0.000000
 42
0.000000
  0
VERTEX
  8
BG_SILKSCREEN_TOP
 10
28.439200
 20
7.543200
 40
0.000000
 41
0.000000
 42
0.000000
  0
VERTEX
  8
BG_SILKSCREEN_TOP
 10
28.453600
 20
7.484000
 40
0.000000
 41
0.000000
 42
0.000000
  0
VERTEX
  8
BG_SILKSCREEN_TOP
 10
28.446200
 20
7.425200
 40
0.000000
 41
0.000000
 42
0.000000
  0
VERTEX
  8
BG_SILKSCREEN_TOP
 10
28.423600
 20
7.371400
 40
0.000000
 41
0.000000
 42
0.000000
  0
VERTEX
  8
BG_SILKSCREEN_TOP
 10
28.388600
 20
7.324800
 40
0.000000
 41
0.000000
 42
0.000000
  0
VERTEX
  8
BG_SILKSCREEN_TOP
 10
28.345600
 20
7.286600
 40
0.000000
 41
0.000000
 42
0.000000
  0
VERTEX
  8
BG_SILKSCREEN_TOP
 10
28.294400
 20
7.263200
 40
0.000000
 41
0.000000
 42
0.000000
  0
VERTEX
  8
BG_SILKSCREEN_TOP
 10
28.238200
 20
7.264200
 40
0.000000
 41
0.000000
 42
0.000000
  0
VERTEX
  8
BG_SILKSCREEN_TOP
 10
28.183800
 20
7.277400
 40
0.000000
 41
0.000000
 42
0.000000
  0
VERTEX
  8
BG_SILKSCREEN_TOP
 10
28.133600
 20
7.301600
 40
0.000000
 41
0.000000
 42
0.000000
  0
VERTEX
  8
BG_SILKSCREEN_TOP
 10
28.092000
 20
7.337600
 40
0.000000
 41
0.000000
 42
0.000000
  0
VERTEX
  8
BG_SILKSCREEN_TOP
 10
28.062400
 20
7.383400
 40
0.000000
 41
0.000000
 42
0.000000
  0
VERTEX
  8
BG_SILKSCREEN_TOP
 10
28.045200
 20
7.435000
 40
0.000000
 41
0.000000
 42
0.000000
  0
VERTEX
  8
BG_SILKSCREEN_TOP
 10
28.037000
 20
7.488400
 40
0.000000
 41
0.000000
 42
0.000000
  0
VERTEX
  8
BG_SILKSCREEN_TOP
 10
28.035200
 20
7.542200
 40
0.000000
 41
0.000000
 42
0.000000
  0
VERTEX
  8
BG_SILKSCREEN_TOP
 10
28.035200
 20
7.650000
 40
0.000000
 41
0.000000
 42
0.000000
  0
VERTEX
  8
BG_SILKSCREEN_TOP
 10
27.500000
 20
7.650000
 40
0.000000
 41
0.000000
 42
0.000000
  0
VERTEX
  8
BG_SILKSCREEN_TOP
 10
27.500000
 20
7.553200
 40
0.000000
 41
0.000000
 42
0.000000
  0
VERTEX
  8
BG_SILKSCREEN_TOP
 10
27.503800
 20
7.456600
 40
0.000000
 41
0.000000
 42
0.000000
  0
VERTEX
  8
BG_SILKSCREEN_TOP
 10
27.519600
 20
7.361400
 40
0.000000
 41
0.000000
 42
0.000000
  0
VERTEX
  8
BG_SILKSCREEN_TOP
 10
27.548800
 20
7.269600
 40
0.000000
 41
0.000000
 42
0.000000
  0
VERTEX
  8
BG_SILKSCREEN_TOP
 10
27.592200
 20
7.184000
 40
0.000000
 41
0.000000
 42
0.000000
  0
VERTEX
  8
BG_SILKSCREEN_TOP
 10
27.650000
 20
7.107800
 40
0.000000
 41
0.000000
 42
0.000000
  0
VERTEX
  8
BG_SILKSCREEN_TOP
 10
27.721800
 20
7.045400
 40
0.000000
 41
0.000000
 42
0.000000
  0
VERTEX
  8
BG_SILKSCREEN_TOP
 10
27.804400
 20
6.998800
 40
0.000000
 41
0.000000
 42
0.000000
  0
VERTEX
  8
BG_SILKSCREEN_TOP
 10
27.891600
 20
6.962000
 40
0.000000
 41
0.000000
 42
0.000000
  0
VERTEX
  8
BG_SILKSCREEN_TOP
 10
27.981400
 20
6.933000
 40
0.000000
 41
0.000000
 42
0.000000
  0
VERTEX
  8
BG_SILKSCREEN_TOP
 10
28.073400
 20
6.911200
 40
0.000000
 41
0.000000
 42
0.000000
  0
VERTEX
  8
BG_SILKSCREEN_TOP
 10
28.166600
 20
6.897200
 40
0.000000
 41
0.000000
 42
0.000000
  0
VERTEX
  8
BG_SILKSCREEN_TOP
 10
28.260600
 20
6.895400
 40
0.000000
 41
0.000000
 42
0.000000
  0
VERTEX
  8
BG_SILKSCREEN_TOP
 10
28.353800
 20
6.906000
 40
0.000000
 41
0.000000
 42
0.000000
  0
VERTEX
  8
BG_SILKSCREEN_TOP
 10
28.446000
 20
6.922600
 40
0.000000
 41
0.000000
 42
0.000000
  0
VERTEX
  8
BG_SILKSCREEN_TOP
 10
28.537000
 20
6.945000
 40
0.000000
 41
0.000000
 42
0.000000
  0
VERTEX
  8
BG_SILKSCREEN_TOP
 10
28.625600
 20
6.973200
 40
0.000000
 41
0.000000
 42
0.000000
  0
VERTEX
  8
BG_SILKSCREEN_TOP
 10
28.708800
 20
7.014400
 40
0.000000
 41
0.000000
 42
0.000000
  0
VERTEX
  8
BG_SILKSCREEN_TOP
 10
28.783000
 20
7.069800
 40
0.000000
 41
0.000000
 42
0.000000
  0
VERTEX
  8
BG_SILKSCREEN_TOP
 10
28.844200
 20
7.136800
 40
0.000000
 41
0.000000
 42
0.000000
  0
VERTEX
  8
BG_SILKSCREEN_TOP
 10
28.890000
 20
7.215800
 40
0.000000
 41
0.000000
 42
0.000000
  0
VERTEX
  8
BG_SILKSCREEN_TOP
 10
28.918400
 20
7.301200
 40
0.000000
 41
0.000000
 42
0.000000
  0
VERTEX
  8
BG_SILKSCREEN_TOP
 10
28.936400
 20
7.389000
 40
0.000000
 41
0.000000
 42
0.000000
  0
VERTEX
  8
BG_SILKSCREEN_TOP
 10
28.945600
 20
7.478200
 40
0.000000
 41
0.000000
 42
0.000000
  0
VERTEX
  8
BG_SILKSCREEN_TOP
 10
28.945800
 20
7.567400
 40
0.000000
 41
0.000000
 42
0.000000
  0
VERTEX
  8
BG_SILKSCREEN_TOP
 10
28.937200
 20
7.656000
 40
0.000000
 41
0.000000
 42
0.000000
  0
VERTEX
  8
BG_SILKSCREEN_TOP
 10
28.920000
 20
7.743200
 40
0.000000
 41
0.000000
 42
0.000000
  0
VERTEX
  8
BG_SILKSCREEN_TOP
 10
28.887400
 20
7.825000
 40
0.000000
 41
0.000000
 42
0.000000
  0
VERTEX
  8
BG_SILKSCREEN_TOP
 10
28.837400
 20
7.897000
 40
0.000000
 41
0.000000
 42
0.000000
  0
VERTEX
  8
BG_SILKSCREEN_TOP
 10
28.776600
 20
7.959400
 40
0.000000
 41
0.000000
 42
0.000000
  0
VERTEX
  8
BG_SILKSCREEN_TOP
 10
28.708000
 20
8.013000
 40
0.000000
 41
0.000000
 42
0.000000
  0
VERTEX
  8
BG_SILKSCREEN_TOP
 10
28.635200
 20
8.059800
 40
0.000000
 41
0.000000
 42
0.000000
  0
VERTEX
  8
BG_SILKSCREEN_TOP
 10
28.561400
 20
8.105400
 40
0.000000
 41
0.000000
 42
0.000000
  0
VERTEX
  8
BG_SILKSCREEN_TOP
 10
28.486800
 20
8.149600
 40
0.000000
 41
0.000000
 42
0.000000
  0
VERTEX
  8
BG_SILKSCREEN_TOP
 10
28.411400
 20
8.192200
 40
0.000000
 41
0.000000
 42
0.000000
  0
VERTEX
  8
BG_SILKSCREEN_TOP
 10
28.335800
 20
8.234600
 40
0.000000
 41
0.000000
 42
0.000000
  0
VERTEX
  8
BG_SILKSCREEN_TOP
 10
28.260800
 20
8.278000
 40
0.000000
 41
0.000000
 42
0.000000
  0
VERTEX
  8
BG_SILKSCREEN_TOP
 10
28.186800
 20
8.323000
 40
0.000000
 41
0.000000
 42
0.000000
  0
VERTEX
  8
BG_SILKSCREEN_TOP
 10
28.118200
 20
8.375600
 40
0.000000
 41
0.000000
 42
0.000000
  0
VERTEX
  8
BG_SILKSCREEN_TOP
 10
28.062400
 20
8.440400
 40
0.000000
 41
0.000000
 42
0.000000
  0
VERTEX
  8
BG_SILKSCREEN_TOP
 10
28.036000
 20
8.520400
 40
0.000000
 41
0.000000
 42
0.000000
  0
VERTEX
  8
BG_SILKSCREEN_TOP
 10
28.045400
 20
8.603000
 40
0.000000
 41
0.000000
 42
0.000000
  0
VERTEX
  8
BG_SILKSCREEN_TOP
 10
28.088600
 20
8.672200
 40
0.000000
 41
0.000000
 42
0.000000
  0
VERTEX
  8
BG_SILKSCREEN_TOP
 10
28.158400
 20
8.711200
 40
0.000000
 41
0.000000
 42
0.000000
  0
VERTEX
  8
BG_SILKSCREEN_TOP
 10
28.237400
 20
8.720000
 40
0.000000
 41
0.000000
 42
0.000000
  0
VERTEX
  8
BG_SILKSCREEN_TOP
 10
28.312800
 20
8.698800
 40
0.000000
 41
0.000000
 42
0.000000
  0
VERTEX
  8
BG_SILKSCREEN_TOP
 10
28.368600
 20
8.646000
 40
0.000000
 41
0.000000
 42
0.000000
  0
VERTEX
  8
BG_SILKSCREEN_TOP
 10
28.397400
 20
8.575400
 40
0.000000
 41
0.000000
 42
0.000000
  0
VERTEX
  8
BG_SILKSCREEN_TOP
 10
28.408400
 20
8.500200
 40
0.000000
 41
0.000000
 42
0.000000
  0
VERTEX
  8
BG_SILKSCREEN_TOP
 10
28.415600
 20
8.424600
 40
0.000000
 41
0.000000
 42
0.000000
  0
VERTEX
  8
BG_SILKSCREEN_TOP
 10
28.425600
 20
8.424400
 40
0.000000
 41
0.000000
 42
0.000000
  0
VERTEX
  8
BG_SILKSCREEN_TOP
 10
28.445600
 20
8.423600
 40
0.000000
 41
0.000000
 42
0.000000
  0
VERTEX
  8
BG_SILKSCREEN_TOP
 10
28.455600
 20
8.423400
 40
0.000000
 41
0.000000
 42
0.000000
  0
VERTEX
  8
BG_SILKSCREEN_TOP
 10
28.475600
 20
8.422600
 40
0.000000
 41
0.000000
 42
0.000000
  0
VERTEX
  8
BG_SILKSCREEN_TOP
 10
28.485600
 20
8.422400
 40
0.000000
 41
0.000000
 42
0.000000
  0
VERTEX
  8
BG_SILKSCREEN_TOP
 10
28.495600
 20
8.422000
 40
0.000000
 41
0.000000
 42
0.000000
  0
VERTEX
  8
BG_SILKSCREEN_TOP
 10
28.505600
 20
8.421800
 40
0.000000
 41
0.000000
 42
0.000000
  0
VERTEX
  8
BG_SILKSCREEN_TOP
 10
28.515800
 20
8.421400
 40
0.000000
 41
0.000000
 42
0.000000
  0
VERTEX
  8
BG_SILKSCREEN_TOP
 10
28.525800
 20
8.421000
 40
0.000000
 41
0.000000
 42
0.000000
  0
VERTEX
  8
BG_SILKSCREEN_TOP
 10
28.535800
 20
8.420800
 40
0.000000
 41
0.000000
 42
0.000000
  0
VERTEX
  8
BG_SILKSCREEN_TOP
 10
28.555800
 20
8.420000
 40
0.000000
 41
0.000000
 42
0.000000
  0
VERTEX
  8
BG_SILKSCREEN_TOP
 10
28.565800
 20
8.419800
 40
0.000000
 41
0.000000
 42
0.000000
  0
VERTEX
  8
BG_SILKSCREEN_TOP
 10
28.585800
 20
8.419000
 40
0.000000
 41
0.000000
 42
0.000000
  0
VERTEX
  8
BG_SILKSCREEN_TOP
 10
28.595800
 20
8.418800
 40
0.000000
 41
0.000000
 42
0.000000
  0
VERTEX
  8
BG_SILKSCREEN_TOP
 10
28.615800
 20
8.418000
 40
0.000000
 41
0.000000
 42
0.000000
  0
VERTEX
  8
BG_SILKSCREEN_TOP
 10
28.626000
 20
8.417800
 40
0.000000
 41
0.000000
 42
0.000000
  0
VERTEX
  8
BG_SILKSCREEN_TOP
 10
28.636000
 20
8.417400
 40
0.000000
 41
0.000000
 42
0.000000
  0
VERTEX
  8
BG_SILKSCREEN_TOP
 10
28.646000
 20
8.417200
 40
0.000000
 41
0.000000
 42
0.000000
  0
VERTEX
  8
BG_SILKSCREEN_TOP
 10
28.666000
 20
8.416400
 40
0.000000
 41
0.000000
 42
0.000000
  0
VERTEX
  8
BG_SILKSCREEN_TOP
 10
28.676000
 20
8.416200
 40
0.000000
 41
0.000000
 42
0.000000
  0
VERTEX
  8
BG_SILKSCREEN_TOP
 10
28.696000
 20
8.415400
 40
0.000000
 41
0.000000
 42
0.000000
  0
VERTEX
  8
BG_SILKSCREEN_TOP
 10
28.706000
 20
8.415200
 40
0.000000
 41
0.000000
 42
0.000000
  0
VERTEX
  8
BG_SILKSCREEN_TOP
 10
28.726000
 20
8.414400
 40
0.000000
 41
0.000000
 42
0.000000
  0
VERTEX
  8
BG_SILKSCREEN_TOP
 10
28.736200
 20
8.414200
 40
0.000000
 41
0.000000
 42
0.000000
  0
VERTEX
  8
BG_SILKSCREEN_TOP
 10
28.756200
 20
8.413400
 40
0.000000
 41
0.000000
 42
0.000000
  0
VERTEX
  8
BG_SILKSCREEN_TOP
 10
28.766200
 20
8.413200
 40
0.000000
 41
0.000000
 42
0.000000
  0
VERTEX
  8
BG_SILKSCREEN_TOP
 10
28.776200
 20
8.412800
 40
0.000000
 41
0.000000
 42
0.000000
  0
VERTEX
  8
BG_SILKSCREEN_TOP
 10
28.786200
 20
8.412600
 40
0.000000
 41
0.000000
 42
0.000000
  0
VERTEX
  8
BG_SILKSCREEN_TOP
 10
28.806200
 20
8.411800
 40
0.000000
 41
0.000000
 42
0.000000
  0
VERTEX
  8
BG_SILKSCREEN_TOP
 10
28.816200
 20
8.411600
 40
0.000000
 41
0.000000
 42
0.000000
  0
VERTEX
  8
BG_SILKSCREEN_TOP
 10
28.826200
 20
8.411200
 40
0.000000
 41
0.000000
 42
0.000000
  0
VERTEX
  8
BG_SILKSCREEN_TOP
 10
28.836400
 20
8.410800
 40
0.000000
 41
0.000000
 42
0.000000
  0
VERTEX
  8
BG_SILKSCREEN_TOP
 10
28.846400
 20
8.410600
 40
0.000000
 41
0.000000
 42
0.000000
  0
VERTEX
  8
BG_SILKSCREEN_TOP
 10
28.866400
 20
8.409800
 40
0.000000
 41
0.000000
 42
0.000000
  0
VERTEX
  8
BG_SILKSCREEN_TOP
 10
28.876400
 20
8.409600
 40
0.000000
 41
0.000000
 42
0.000000
  0
VERTEX
  8
BG_SILKSCREEN_TOP
 10
28.886400
 20
8.409200
 40
0.000000
 41
0.000000
 42
0.000000
  0
VERTEX
  8
BG_SILKSCREEN_TOP
 10
28.896400
 20
8.409000
 40
0.000000
 41
0.000000
 42
0.000000
  0
VERTEX
  8
BG_SILKSCREEN_TOP
 10
28.916400
 20
8.408200
 40
0.000000
 41
0.000000
 42
0.000000
  0
VERTEX
  8
BG_SILKSCREEN_TOP
 10
28.914000
 20
8.435000
 40
0.000000
 41
0.000000
 42
0.000000
  0
VERTEX
  8
BG_SILKSCREEN_TOP
 10
28.909200
 20
8.488200
 40
0.000000
 41
0.000000
 42
0.000000
  0
VERTEX
  8
BG_SILKSCREEN_TOP
 10
28.906800
 20
8.515000
 40
0.000000
 41
0.000000
 42
0.000000
  0
VERTEX
  8
BG_SILKSCREEN_TOP
 10
28.904400
 20
8.541600
 40
0.000000
 41
0.000000
 42
0.000000
  0
VERTEX
  8
BG_SILKSCREEN_TOP
 10
28.902000
 20
8.568400
 40
0.000000
 41
0.000000
 42
0.000000
  0
VERTEX
  8
BG_SILKSCREEN_TOP
 10
28.899600
 20
8.595000
 40
0.000000
 41
0.000000
 42
0.000000
  0
VERTEX
  8
BG_SILKSCREEN_TOP
 10
28.896400
 20
8.621600
 40
0.000000
 41
0.000000
 42
0.000000
  0
VERTEX
  8
BG_SILKSCREEN_TOP
 10
28.892400
 20
8.648000
 40
0.000000
 41
0.000000
 42
0.000000
  0
VERTEX
  8
BG_SILKSCREEN_TOP
 10
28.887600
 20
8.674400
 40
0.000000
 41
0.000000
 42
0.000000
  0
VERTEX
  8
BG_SILKSCREEN_TOP
 10
28.882000
 20
8.700600
 40
0.000000
 41
0.000000
 42
0.000000
  0
VERTEX
  8
BG_SILKSCREEN_TOP
 10
28.875600
 20
8.726400
 40
0.000000
 41
0.000000
 42
0.000000
  0
VERTEX
  8
BG_SILKSCREEN_TOP
 10
28.867600
 20
8.751800
 40
0.000000
 41
0.000000
 42
0.000000
  0
VERTEX
  8
BG_SILKSCREEN_TOP
 10
28.857600
 20
8.776400
 40
0.000000
 41
0.000000
 42
0.000000
  0
VERTEX
  8
BG_SILKSCREEN_TOP
 10
28.845600
 20
8.800200
 40
0.000000
 41
0.000000
 42
0.000000
  0
VERTEX
  8
BG_SILKSCREEN_TOP
 10
28.832000
 20
8.823000
 40
0.000000
 41
0.000000
 42
0.000000
  0
VERTEX
  8
BG_SILKSCREEN_TOP
 10
28.816600
 20
8.844400
 40
0.000000
 41
0.000000
 42
0.000000
  0
VERTEX
  8
BG_SILKSCREEN_TOP
 10
28.799600
 20
8.864600
 40
0.000000
 41
0.000000
 42
0.000000
  0
VERTEX
  8
BG_SILKSCREEN_TOP
 10
28.781000
 20
8.883200
 40
0.000000
 41
0.000000
 42
0.000000
  0
VERTEX
  8
BG_SILKSCREEN_TOP
 10
28.760800
 20
8.900400
 40
0.000000
 41
0.000000
 42
0.000000
  0
VERTEX
  8
BG_SILKSCREEN_TOP
 10
28.740000
 20
8.916200
 40
0.000000
 41
0.000000
 42
0.000000
  0
VERTEX
  8
BG_SILKSCREEN_TOP
 10
28.718800
 20
8.931600
 40
0.000000
 41
0.000000
 42
0.000000
  0
VERTEX
  8
BG_SILKSCREEN_TOP
 10
28.697000
 20
8.946200
 40
0.000000
 41
0.000000
 42
0.000000
  0
VERTEX
  8
BG_SILKSCREEN_TOP
 10
28.674600
 20
8.960000
 40
0.000000
 41
0.000000
 42
0.000000
  0
VERTEX
  8
BG_SILKSCREEN_TOP
 10
28.652000
 20
8.973200
 40
0.000000
 41
0.000000
 42
0.000000
  0
VERTEX
  8
BG_SILKSCREEN_TOP
 10
28.628800
 20
8.985400
 40
0.000000
 41
0.000000
 42
0.000000
  0
VERTEX
  8
BG_SILKSCREEN_TOP
 10
28.605200
 20
8.996600
 40
0.000000
 41
0.000000
 42
0.000000
  0
VERTEX
  8
BG_SILKSCREEN_TOP
 10
28.581000
 20
9.006800
 40
0.000000
 41
0.000000
 42
0.000000
  0
VERTEX
  8
BG_SILKSCREEN_TOP
 10
28.556600
 20
9.015800
 40
0.000000
 41
0.000000
 42
0.000000
  0
VERTEX
  8
BG_SILKSCREEN_TOP
 10
28.531600
 20
9.023400
 40
0.000000
 41
0.000000
 42
0.000000
  0
VERTEX
  8
BG_SILKSCREEN_TOP
 10
28.506200
 20
9.029600
 40
0.000000
 41
0.000000
 42
0.000000
  0
VERTEX
  8
BG_SILKSCREEN_TOP
 10
28.480400
 20
9.034400
 40
0.000000
 41
0.000000
 42
0.000000
  0
VERTEX
  8
BG_SILKSCREEN_TOP
 10
28.454600
 20
9.038200
 40
0.000000
 41
0.000000
 42
0.000000
  0
VERTEX
  8
BG_SILKSCREEN_TOP
 10
28.428800
 20
9.041200
 40
0.000000
 41
0.000000
 42
0.000000
  0
VERTEX
  8
BG_SILKSCREEN_TOP
 10
28.402800
 20
9.043200
 40
0.000000
 41
0.000000
 42
0.000000
  0
VERTEX
  8
BG_SILKSCREEN_TOP
 10
28.376800
 20
9.044800
 40
0.000000
 41
0.000000
 42
0.000000
  0
VERTEX
  8
BG_SILKSCREEN_TOP
 10
28.324800
 20
9.047600
 40
0.000000
 41
0.000000
 42
0.000000
  0
VERTEX
  8
BG_SILKSCREEN_TOP
 10
28.298600
 20
9.048600
 40
0.000000
 41
0.000000
 42
0.000000
  0
VERTEX
  8
BG_SILKSCREEN_TOP
 10
28.246600
 20
9.049800
 40
0.000000
 41
0.000000
 42
0.000000
  0
VERTEX
  8
BG_SILKSCREEN_TOP
 10
28.220600
 20
9.050000
 40
0.000000
 41
0.000000
 42
0.000000
  0
VERTEX
  8
BG_SILKSCREEN_TOP
 10
28.194400
 20
9.050000
 40
0.000000
 41
0.000000
 42
0.000000
  0
VERTEX
  8
BG_SILKSCREEN_TOP
 10
28.168400
 20
9.049600
 40
0.000000
 41
0.000000
 42
0.000000
  0
VERTEX
  8
BG_SILKSCREEN_TOP
 10
28.142400
 20
9.049000
 40
0.000000
 41
0.000000
 42
0.000000
  0
VERTEX
  8
BG_SILKSCREEN_TOP
 10
28.116200
 20
9.048200
 40
0.000000
 41
0.000000
 42
0.000000
  0
VERTEX
  8
BG_SILKSCREEN_TOP
 10
28.090200
 20
9.047000
 40
0.000000
 41
0.000000
 42
0.000000
  0
VERTEX
  8
BG_SILKSCREEN_TOP
 10
28.064200
 20
9.045600
 40
0.000000
 41
0.000000
 42
0.000000
  0
VERTEX
  8
BG_SILKSCREEN_TOP
 10
28.038200
 20
9.043800
 40
0.000000
 41
0.000000
 42
0.000000
  0
VERTEX
  8
BG_SILKSCREEN_TOP
 10
28.012200
 20
9.041800
 40
0.000000
 41
0.000000
 42
0.000000
  0
VERTEX
  8
BG_SILKSCREEN_TOP
 10
27.946400
 20
9.028600
 40
0.000000
 41
0.000000
 42
0.000000
  0
SEQEND
  0
POLYLINE
  8
BG_SILKSCREEN_TOP
 66
1
 70
1
 40
0.000000
 41
0.000000
 39
0.000000
  0
VERTEX
  8
BG_SILKSCREEN_TOP
 10
34.549600
 20
9.028200
 40
0.000000
 41
0.000000
 42
0.000000
  0
VERTEX
  8
BG_SILKSCREEN_TOP
 10
34.483200
 20
9.012200
 40
0.000000
 41
0.000000
 42
0.000000
  0
VERTEX
  8
BG_SILKSCREEN_TOP
 10
34.418400
 20
8.991200
 40
0.000000
 41
0.000000
 42
0.000000
  0
VERTEX
  8
BG_SILKSCREEN_TOP
 10
34.355400
 20
8.965200
 40
0.000000
 41
0.000000
 42
0.000000
  0
VERTEX
  8
BG_SILKSCREEN_TOP
 10
34.296400
 20
8.932600
 40
0.000000
 41
0.000000
 42
0.000000
  0
VERTEX
  8
BG_SILKSCREEN_TOP
 10
34.243200
 20
8.891000
 40
0.000000
 41
0.000000
 42
0.000000
  0
VERTEX
  8
BG_SILKSCREEN_TOP
 10
34.197400
 20
8.842000
 40
0.000000
 41
0.000000
 42
0.000000
  0
VERTEX
  8
BG_SILKSCREEN_TOP
 10
34.160400
 20
8.787000
 40
0.000000
 41
0.000000
 42
0.000000
  0
VERTEX
  8
BG_SILKSCREEN_TOP
 10
34.132200
 20
8.726600
 40
0.000000
 41
0.000000
 42
0.000000
  0
VERTEX
  8
BG_SILKSCREEN_TOP
 10
34.113600
 20
8.663400
 40
0.000000
 41
0.000000
 42
0.000000
  0
VERTEX
  8
BG_SILKSCREEN_TOP
 10
34.101000
 20
8.599000
 40
0.000000
 41
0.000000
 42
0.000000
  0
VERTEX
  8
BG_SILKSCREEN_TOP
 10
34.093600
 20
8.533600
 40
0.000000
 41
0.000000
 42
0.000000
  0
VERTEX
  8
BG_SILKSCREEN_TOP
 10
34.091600
 20
8.468000
 40
0.000000
 41
0.000000
 42
0.000000
  0
VERTEX
  8
BG_SILKSCREEN_TOP
 10
34.095000
 20
8.402800
 40
0.000000
 41
0.000000
 42
0.000000
  0
VERTEX
  8
BG_SILKSCREEN_TOP
 10
34.104200
 20
8.338200
 40
0.000000
 41
0.000000
 42
0.000000
  0
VERTEX
  8
BG_SILKSCREEN_TOP
 10
34.119200
 20
8.275000
 40
0.000000
 41
0.000000
 42
0.000000
  0
VERTEX
  8
BG_SILKSCREEN_TOP
 10
34.143400
 20
8.215000
 40
0.000000
 41
0.000000
 42
0.000000
  0
VERTEX
  8
BG_SILKSCREEN_TOP
 10
34.178200
 20
8.160600
 40
0.000000
 41
0.000000
 42
0.000000
  0
VERTEX
  8
BG_SILKSCREEN_TOP
 10
34.220400
 20
8.112600
 40
0.000000
 41
0.000000
 42
0.000000
  0
VERTEX
  8
BG_SILKSCREEN_TOP
 10
34.267200
 20
8.069000
 40
0.000000
 41
0.000000
 42
0.000000
  0
VERTEX
  8
BG_SILKSCREEN_TOP
 10
34.317800
 20
8.030200
 40
0.000000
 41
0.000000
 42
0.000000
  0
VERTEX
  8
BG_SILKSCREEN_TOP
 10
34.371000
 20
7.995200
 40
0.000000
 41
0.000000
 42
0.000000
  0
VERTEX
  8
BG_SILKSCREEN_TOP
 10
34.424600
 20
7.961200
 40
0.000000
 41
0.000000
 42
0.000000
  0
VERTEX
  8
BG_SILKSCREEN_TOP
 10
34.478800
 20
7.927800
 40
0.000000
 41
0.000000
 42
0.000000
  0
VERTEX
  8
BG_SILKSCREEN_TOP
 10
34.533400
 20
7.895000
 40
0.000000
 41
0.000000
 42
0.000000
  0
VERTEX
  8
BG_SILKSCREEN_TOP
 10
34.588200
 20
7.862800
 40
0.000000
 41
0.000000
 42
0.000000
  0
VERTEX
  8
BG_SILKSCREEN_TOP
 10
34.643600
 20
7.831400
 40
0.000000
 41
0.000000
 42
0.000000
  0
VERTEX
  8
BG_SILKSCREEN_TOP
 10
34.698400
 20
7.799200
 40
0.000000
 41
0.000000
 42
0.000000
  0
VERTEX
  8
BG_SILKSCREEN_TOP
 10
34.752800
 20
7.766000
 40
0.000000
 41
0.000000
 42
0.000000
  0
VERTEX
  8
BG_SILKSCREEN_TOP
 10
34.806600
 20
7.732200
 40
0.000000
 41
0.000000
 42
0.000000
  0
VERTEX
  8
BG_SILKSCREEN_TOP
 10
34.858400
 20
7.695600
 40
0.000000
 41
0.000000
 42
0.000000
  0
VERTEX
  8
BG_SILKSCREEN_TOP
 10
34.906200
 20
7.654000
 40
0.000000
 41
0.000000
 42
0.000000
  0
VERTEX
  8
BG_SILKSCREEN_TOP
 10
34.947800
 20
7.606600
 40
0.000000
 41
0.000000
 42
0.000000
  0
VERTEX
  8
BG_SILKSCREEN_TOP
 10
34.977200
 20
7.551400
 40
0.000000
 41
0.000000
 42
0.000000
  0
VERTEX
  8
BG_SILKSCREEN_TOP
 10
34.991800
 20
7.491000
 40
0.000000
 41
0.000000
 42
0.000000
  0
VERTEX
  8
BG_SILKSCREEN_TOP
 10
34.989600
 20
7.429600
 40
0.000000
 41
0.000000
 42
0.000000
  0
VERTEX
  8
BG_SILKSCREEN_TOP
 10
34.970400
 20
7.371800
 40
0.000000
 41
0.000000
 42
0.000000
  0
VERTEX
  8
BG_SILKSCREEN_TOP
 10
34.932000
 20
7.325800
 40
0.000000
 41
0.000000
 42
0.000000
  0
VERTEX
  8
BG_SILKSCREEN_TOP
 10
34.880000
 20
7.297400
 40
0.000000
 41
0.000000
 42
0.000000
  0
VERTEX
  8
BG_SILKSCREEN_TOP
 10
34.822600
 20
7.285600
 40
0.000000
 41
0.000000
 42
0.000000
  0
VERTEX
  8
BG_SILKSCREEN_TOP
 10
34.764000
 20
7.285400
 40
0.000000
 41
0.000000
 42
0.000000
  0
VERTEX
  8
BG_SILKSCREEN_TOP
 10
34.706200
 20
7.293000
 40
0.000000
 41
0.000000
 42
0.000000
  0
VERTEX
  8
BG_SILKSCREEN_TOP
 10
34.654800
 20
7.317400
 40
0.000000
 41
0.000000
 42
0.000000
  0
VERTEX
  8
BG_SILKSCREEN_TOP
 10
34.623000
 20
7.363000
 40
0.000000
 41
0.000000
 42
0.000000
  0
VERTEX
  8
BG_SILKSCREEN_TOP
 10
34.609600
 20
7.416600
 40
0.000000
 41
0.000000
 42
0.000000
  0
VERTEX
  8
BG_SILKSCREEN_TOP
 10
34.601000
 20
7.471200
 40
0.000000
 41
0.000000
 42
0.000000
  0
VERTEX
  8
BG_SILKSCREEN_TOP
 10
34.595400
 20
7.526200
 40
0.000000
 41
0.000000
 42
0.000000
  0
VERTEX
  8
BG_SILKSCREEN_TOP
 10
34.590000
 20
7.581000
 40
0.000000
 41
0.000000
 42
0.000000
  0
VERTEX
  8
BG_SILKSCREEN_TOP
 10
34.584400
 20
7.636000
 40
0.000000
 41
0.000000
 42
0.000000
  0
VERTEX
  8
BG_SILKSCREEN_TOP
 10
34.574000
 20
7.636200
 40
0.000000
 41
0.000000
 42
0.000000
  0
VERTEX
  8
BG_SILKSCREEN_TOP
 10
34.553200
 20
7.637000
 40
0.000000
 41
0.000000
 42
0.000000
  0
VERTEX
  8
BG_SILKSCREEN_TOP
 10
34.542800
 20
7.637200
 40
0.000000
 41
0.000000
 42
0.000000
  0
VERTEX
  8
BG_SILKSCREEN_TOP
 10
34.532400
 20
7.637600
 40
0.000000
 41
0.000000
 42
0.000000
  0
VERTEX
  8
BG_SILKSCREEN_TOP
 10
34.522000
 20
7.637800
 40
0.000000
 41
0.000000
 42
0.000000
  0
VERTEX
  8
BG_SILKSCREEN_TOP
 10
34.511400
 20
7.638200
 40
0.000000
 41
0.000000
 42
0.000000
  0
VERTEX
  8
BG_SILKSCREEN_TOP
 10
34.501000
 20
7.638600
 40
0.000000
 41
0.000000
 42
0.000000
  0
VERTEX
  8
BG_SILKSCREEN_TOP
 10
34.490600
 20
7.638800
 40
0.000000
 41
0.000000
 42
0.000000
  0
VERTEX
  8
BG_SILKSCREEN_TOP
 10
34.480200
 20
7.639200
 40
0.000000
 41
0.000000
 42
0.000000
  0
VERTEX
  8
BG_SILKSCREEN_TOP
 10
34.469800
 20
7.639400
 40
0.000000
 41
0.000000
 42
0.000000
  0
VERTEX
  8
BG_SILKSCREEN_TOP
 10
34.449000
 20
7.640200
 40
0.000000
 41
0.000000
 42
0.000000
  0
VERTEX
  8
BG_SILKSCREEN_TOP
 10
34.438600
 20
7.640400
 40
0.000000
 41
0.000000
 42
0.000000
  0
VERTEX
  8
BG_SILKSCREEN_TOP
 10
34.428200
 20
7.640800
 40
0.000000
 41
0.000000
 42
0.000000
  0
VERTEX
  8
BG_SILKSCREEN_TOP
 10
34.417600
 20
7.641200
 40
0.000000
 41
0.000000
 42
0.000000
  0
VERTEX
  8
BG_SILKSCREEN_TOP
 10
34.407200
 20
7.641400
 40
0.000000
 41
0.000000
 42
0.000000
  0
VERTEX
  8
BG_SILKSCREEN_TOP
 10
34.396800
 20
7.641800
 40
0.000000
 41
0.000000
 42
0.000000
  0
VERTEX
  8
BG_SILKSCREEN_TOP
 10
34.386400
 20
7.642000
 40
0.000000
 41
0.000000
 42
0.000000
  0
VERTEX
  8
BG_SILKSCREEN_TOP
 10
34.365600
 20
7.642800
 40
0.000000
 41
0.000000
 42
0.000000
  0
VERTEX
  8
BG_SILKSCREEN_TOP
 10
34.355200
 20
7.643000
 40
0.000000
 41
0.000000
 42
0.000000
  0
VERTEX
  8
BG_SILKSCREEN_TOP
 10
34.334400
 20
7.643800
 40
0.000000
 41
0.000000
 42
0.000000
  0
VERTEX
  8
BG_SILKSCREEN_TOP
 10
34.323800
 20
7.644000
 40
0.000000
 41
0.000000
 42
0.000000
  0
VERTEX
  8
BG_SILKSCREEN_TOP
 10
34.313400
 20
7.644400
 40
0.000000
 41
0.000000
 42
0.000000
  0
VERTEX
  8
BG_SILKSCREEN_TOP
 10
34.303000
 20
7.644600
 40
0.000000
 41
0.000000
 42
0.000000
  0
VERTEX
  8
BG_SILKSCREEN_TOP
 10
34.282200
 20
7.645400
 40
0.000000
 41
0.000000
 42
0.000000
  0
VERTEX
  8
BG_SILKSCREEN_TOP
 10
34.271800
 20
7.645600
 40
0.000000
 41
0.000000
 42
0.000000
  0
VERTEX
  8
BG_SILKSCREEN_TOP
 10
34.261400
 20
7.646000
 40
0.000000
 41
0.000000
 42
0.000000
  0
VERTEX
  8
BG_SILKSCREEN_TOP
 10
34.251000
 20
7.646200
 40
0.000000
 41
0.000000
 42
0.000000
  0
VERTEX
  8
BG_SILKSCREEN_TOP
 10
34.240600
 20
7.646600
 40
0.000000
 41
0.000000
 42
0.000000
  0
VERTEX
  8
BG_SILKSCREEN_TOP
 10
34.230000
 20
7.647000
 40
0.000000
 41
0.000000
 42
0.000000
  0
VERTEX
  8
BG_SILKSCREEN_TOP
 10
34.219600
 20
7.647200
 40
0.000000
 41
0.000000
 42
0.000000
  0
VERTEX
  8
BG_SILKSCREEN_TOP
 10
34.198800
 20
7.648000
 40
0.000000
 41
0.000000
 42
0.000000
  0
VERTEX
  8
BG_SILKSCREEN_TOP
 10
34.188400
 20
7.648200
 40
0.000000
 41
0.000000
 42
0.000000
  0
VERTEX
  8
BG_SILKSCREEN_TOP
 10
34.178000
 20
7.648600
 40
0.000000
 41
0.000000
 42
0.000000
  0
VERTEX
  8
BG_SILKSCREEN_TOP
 10
34.167600
 20
7.648800
 40
0.000000
 41
0.000000
 42
0.000000
  0
VERTEX
  8
BG_SILKSCREEN_TOP
 10
34.157200
 20
7.649200
 40
0.000000
 41
0.000000
 42
0.000000
  0
VERTEX
  8
BG_SILKSCREEN_TOP
 10
34.146600
 20
7.649600
 40
0.000000
 41
0.000000
 42
0.000000
  0
VERTEX
  8
BG_SILKSCREEN_TOP
 10
34.136200
 20
7.649800
 40
0.000000
 41
0.000000
 42
0.000000
  0
VERTEX
  8
BG_SILKSCREEN_TOP
 10
34.115400
 20
7.650600
 40
0.000000
 41
0.000000
 42
0.000000
  0
VERTEX
  8
BG_SILKSCREEN_TOP
 10
34.105000
 20
7.650800
 40
0.000000
 41
0.000000
 42
0.000000
  0
VERTEX
  8
BG_SILKSCREEN_TOP
 10
34.094600
 20
7.651200
 40
0.000000
 41
0.000000
 42
0.000000
  0
VERTEX
  8
BG_SILKSCREEN_TOP
 10
34.084200
 20
7.651400
 40
0.000000
 41
0.000000
 42
0.000000
  0
VERTEX
  8
BG_SILKSCREEN_TOP
 10
34.063400
 20
7.652200
 40
0.000000
 41
0.000000
 42
0.000000
  0
VERTEX
  8
BG_SILKSCREEN_TOP
 10
34.063800
 20
7.555000
 40
0.000000
 41
0.000000
 42
0.000000
  0
VERTEX
  8
BG_SILKSCREEN_TOP
 10
34.065600
 20
7.458200
 40
0.000000
 41
0.000000
 42
0.000000
  0
VERTEX
  8
BG_SILKSCREEN_TOP
 10
34.078600
 20
7.362200
 40
0.000000
 41
0.000000
 42
0.000000
  0
VERTEX
  8
BG_SILKSCREEN_TOP
 10
34.106000
 20
7.269800
 40
0.000000
 41
0.000000
 42
0.000000
  0
VERTEX
  8
BG_SILKSCREEN_TOP
 10
34.148800
 20
7.184000
 40
0.000000
 41
0.000000
 42
0.000000
  0
VERTEX
  8
BG_SILKSCREEN_TOP
 10
34.207000
 20
7.108000
 40
0.000000
 41
0.000000
 42
0.000000
  0
VERTEX
  8
BG_SILKSCREEN_TOP
 10
34.280000
 20
7.047000
 40
0.000000
 41
0.000000
 42
0.000000
  0
VERTEX
  8
BG_SILKSCREEN_TOP
 10
34.362000
 20
7.000600
 40
0.000000
 41
0.000000
 42
0.000000
  0
VERTEX
  8
BG_SILKSCREEN_TOP
 10
34.449800
 20
6.965400
 40
0.000000
 41
0.000000
 42
0.000000
  0
VERTEX
  8
BG_SILKSCREEN_TOP
 10
34.541200
 20
6.942400
 40
0.000000
 41
0.000000
 42
0.000000
  0
VERTEX
  8
BG_SILKSCREEN_TOP
 10
34.633600
 20
6.929400
 40
0.000000
 41
0.000000
 42
0.000000
  0
VERTEX
  8
BG_SILKSCREEN_TOP
 10
34.727000
 20
6.923200
 40
0.000000
 41
0.000000
 42
0.000000
  0
VERTEX
  8
BG_SILKSCREEN_TOP
 10
34.820400
 20
6.923600
 40
0.000000
 41
0.000000
 42
0.000000
  0
VERTEX
  8
BG_SILKSCREEN_TOP
 10
34.913200
 20
6.930600
 40
0.000000
 41
0.000000
 42
0.000000
  0
VERTEX
  8
BG_SILKSCREEN_TOP
 10
35.005000
 20
6.944800
 40
0.000000
 41
0.000000
 42
0.000000
  0
VERTEX
  8
BG_SILKSCREEN_TOP
 10
35.095600
 20
6.966000
 40
0.000000
 41
0.000000
 42
0.000000
  0
VERTEX
  8
BG_SILKSCREEN_TOP
 10
35.184000
 20
6.994200
 40
0.000000
 41
0.000000
 42
0.000000
  0
VERTEX
  8
BG_SILKSCREEN_TOP
 10
35.266600
 20
7.032600
 40
0.000000
 41
0.000000
 42
0.000000
  0
VERTEX
  8
BG_SILKSCREEN_TOP
 10
35.339200
 20
7.088400
 40
0.000000
 41
0.000000
 42
0.000000
  0
VERTEX
  8
BG_SILKSCREEN_TOP
 10
35.397400
 20
7.157800
 40
0.000000
 41
0.000000
 42
0.000000
  0
VERTEX
  8
BG_SILKSCREEN_TOP
 10
35.434200
 20
7.239400
 40
0.000000
 41
0.000000
 42
0.000000
  0
VERTEX
  8
BG_SILKSCREEN_TOP
 10
35.461000
 20
7.324800
 40
0.000000
 41
0.000000
 42
0.000000
  0
VERTEX
  8
BG_SILKSCREEN_TOP
 10
35.479400
 20
7.412200
 40
0.000000
 41
0.000000
 42
0.000000
  0
VERTEX
  8
BG_SILKSCREEN_TOP
 10
35.488400
 20
7.500800
 40
0.000000
 41
0.000000
 42
0.000000
  0
VERTEX
  8
BG_SILKSCREEN_TOP
 10
35.488000
 20
7.590000
 40
0.000000
 41
0.000000
 42
0.000000
  0
VERTEX
  8
BG_SILKSCREEN_TOP
 10
35.477400
 20
7.677800
 40
0.000000
 41
0.000000
 42
0.000000
  0
VERTEX
  8
BG_SILKSCREEN_TOP
 10
35.451400
 20
7.762000
 40
0.000000
 41
0.000000
 42
0.000000
  0
VERTEX
  8
BG_SILKSCREEN_TOP
 10
35.409800
 20
7.839200
 40
0.000000
 41
0.000000
 42
0.000000
  0
VERTEX
  8
BG_SILKSCREEN_TOP
 10
35.356800
 20
7.907800
 40
0.000000
 41
0.000000
 42
0.000000
  0
VERTEX
  8
BG_SILKSCREEN_TOP
 10
35.295200
 20
7.969000
 40
0.000000
 41
0.000000
 42
0.000000
  0
VERTEX
  8
BG_SILKSCREEN_TOP
 10
35.226800
 20
8.021800
 40
0.000000
 41
0.000000
 42
0.000000
  0
VERTEX
  8
BG_SILKSCREEN_TOP
 10
35.155400
 20
8.070200
 40
0.000000
 41
0.000000
 42
0.000000
  0
VERTEX
  8
BG_SILKSCREEN_TOP
 10
35.082400
 20
8.116200
 40
0.000000
 41
0.000000
 42
0.000000
  0
VERTEX
  8
BG_SILKSCREEN_TOP
 10
35.008200
 20
8.160000
 40
0.000000
 41
0.000000
 42
0.000000
  0
VERTEX
  8
BG_SILKSCREEN_TOP
 10
34.932800
 20
8.201600
 40
0.000000
 41
0.000000
 42
0.000000
  0
VERTEX
  8
BG_SILKSCREEN_TOP
 10
34.857400
 20
8.243400
 40
0.000000
 41
0.000000
 42
0.000000
  0
VERTEX
  8
BG_SILKSCREEN_TOP
 10
34.783200
 20
8.287200
 40
0.000000
 41
0.000000
 42
0.000000
  0
VERTEX
  8
BG_SILKSCREEN_TOP
 10
34.711400
 20
8.334400
 40
0.000000
 41
0.000000
 42
0.000000
  0
VERTEX
  8
BG_SILKSCREEN_TOP
 10
34.645600
 20
8.389400
 40
0.000000
 41
0.000000
 42
0.000000
  0
VERTEX
  8
BG_SILKSCREEN_TOP
 10
34.592600
 20
8.456400
 40
0.000000
 41
0.000000
 42
0.000000
  0
VERTEX
  8
BG_SILKSCREEN_TOP
 10
34.570400
 20
8.536600
 40
0.000000
 41
0.000000
 42
0.000000
  0
VERTEX
  8
BG_SILKSCREEN_TOP
 10
34.594600
 20
8.613800
 40
0.000000
 41
0.000000
 42
0.000000
  0
VERTEX
  8
BG_SILKSCREEN_TOP
 10
34.647600
 20
8.674800
 40
0.000000
 41
0.000000
 42
0.000000
  0
VERTEX
  8
BG_SILKSCREEN_TOP
 10
34.716800
 20
8.714800
 40
0.000000
 41
0.000000
 42
0.000000
  0
VERTEX
  8
BG_SILKSCREEN_TOP
 10
34.794600
 20
8.715400
 40
0.000000
 41
0.000000
 42
0.000000
  0
VERTEX
  8
BG_SILKSCREEN_TOP
 10
34.862600
 20
8.679400
 40
0.000000
 41
0.000000
 42
0.000000
  0
VERTEX
  8
BG_SILKSCREEN_TOP
 10
34.916400
 20
8.625200
 40
0.000000
 41
0.000000
 42
0.000000
  0
VERTEX
  8
BG_SILKSCREEN_TOP
 10
34.953600
 20
8.559200
 40
0.000000
 41
0.000000
 42
0.000000
  0
VERTEX
  8
BG_SILKSCREEN_TOP
 10
34.964800
 20
8.485200
 40
0.000000
 41
0.000000
 42
0.000000
  0
VERTEX
  8
BG_SILKSCREEN_TOP
 10
34.964800
 20
8.410600
 40
0.000000
 41
0.000000
 42
0.000000
  0
VERTEX
  8
BG_SILKSCREEN_TOP
 10
35.443600
 20
8.410600
 40
0.000000
 41
0.000000
 42
0.000000
  0
VERTEX
  8
BG_SILKSCREEN_TOP
 10
35.443600
 20
8.530800
 40
0.000000
 41
0.000000
 42
0.000000
  0
VERTEX
  8
BG_SILKSCREEN_TOP
 10
35.443400
 20
8.554800
 40
0.000000
 41
0.000000
 42
0.000000
  0
VERTEX
  8
BG_SILKSCREEN_TOP
 10
35.442200
 20
8.578600
 40
0.000000
 41
0.000000
 42
0.000000
  0
VERTEX
  8
BG_SILKSCREEN_TOP
 10
35.440200
 20
8.602600
 40
0.000000
 41
0.000000
 42
0.000000
  0
VERTEX
  8
BG_SILKSCREEN_TOP
 10
35.437400
 20
8.626400
 40
0.000000
 41
0.000000
 42
0.000000
  0
VERTEX
  8
BG_SILKSCREEN_TOP
 10
35.433600
 20
8.650200
 40
0.000000
 41
0.000000
 42
0.000000
  0
VERTEX
  8
BG_SILKSCREEN_TOP
 10
35.428800
 20
8.673600
 40
0.000000
 41
0.000000
 42
0.000000
  0
VERTEX
  8
BG_SILKSCREEN_TOP
 10
35.423400
 20
8.697000
 40
0.000000
 41
0.000000
 42
0.000000
  0
VERTEX
  8
BG_SILKSCREEN_TOP
 10
35.416800
 20
8.719800
 40
0.000000
 41
0.000000
 42
0.000000
  0
VERTEX
  8
BG_SILKSCREEN_TOP
 10
35.409000
 20
8.742200
 40
0.000000
 41
0.000000
 42
0.000000
  0
VERTEX
  8
BG_SILKSCREEN_TOP
 10
35.400000
 20
8.764200
 40
0.000000
 41
0.000000
 42
0.000000
  0
VERTEX
  8
BG_SILKSCREEN_TOP
 10
35.389600
 20
8.785800
 40
0.000000
 41
0.000000
 42
0.000000
  0
VERTEX
  8
BG_SILKSCREEN_TOP
 10
35.378200
 20
8.806600
 40
0.000000
 41
0.000000
 42
0.000000
  0
VERTEX
  8
BG_SILKSCREEN_TOP
 10
35.365400
 20
8.826600
 40
0.000000
 41
0.000000
 42
0.000000
  0
VERTEX
  8
BG_SILKSCREEN_TOP
 10
35.351800
 20
8.845800
 40
0.000000
 41
0.000000
 42
0.000000
  0
VERTEX
  8
BG_SILKSCREEN_TOP
 10
35.337000
 20
8.864000
 40
0.000000
 41
0.000000
 42
0.000000
  0
VERTEX
  8
BG_SILKSCREEN_TOP
 10
35.321000
 20
8.881400
 40
0.000000
 41
0.000000
 42
0.000000
  0
VERTEX
  8
BG_SILKSCREEN_TOP
 10
35.304200
 20
8.897800
 40
0.000000
 41
0.000000
 42
0.000000
  0
VERTEX
  8
BG_SILKSCREEN_TOP
 10
35.286200
 20
8.913000
 40
0.000000
 41
0.000000
 42
0.000000
  0
VERTEX
  8
BG_SILKSCREEN_TOP
 10
35.267600
 20
8.927200
 40
0.000000
 41
0.000000
 42
0.000000
  0
VERTEX
  8
BG_SILKSCREEN_TOP
 10
35.248200
 20
8.940200
 40
0.000000
 41
0.000000
 42
0.000000
  0
VERTEX
  8
BG_SILKSCREEN_TOP
 10
35.228200
 20
8.952200
 40
0.000000
 41
0.000000
 42
0.000000
  0
VERTEX
  8
BG_SILKSCREEN_TOP
 10
35.207600
 20
8.963200
 40
0.000000
 41
0.000000
 42
0.000000
  0
VERTEX
  8
BG_SILKSCREEN_TOP
 10
35.186600
 20
8.973400
 40
0.000000
 41
0.000000
 42
0.000000
  0
VERTEX
  8
BG_SILKSCREEN_TOP
 10
35.165200
 20
8.982400
 40
0.000000
 41
0.000000
 42
0.000000
  0
VERTEX
  8
BG_SILKSCREEN_TOP
 10
35.143400
 20
8.990600
 40
0.000000
 41
0.000000
 42
0.000000
  0
VERTEX
  8
BG_SILKSCREEN_TOP
 10
35.121200
 20
8.997600
 40
0.000000
 41
0.000000
 42
0.000000
  0
VERTEX
  8
BG_SILKSCREEN_TOP
 10
35.098800
 20
9.003800
 40
0.000000
 41
0.000000
 42
0.000000
  0
VERTEX
  8
BG_SILKSCREEN_TOP
 10
35.076400
 20
9.009200
 40
0.000000
 41
0.000000
 42
0.000000
  0
VERTEX
  8
BG_SILKSCREEN_TOP
 10
35.053800
 20
9.014400
 40
0.000000
 41
0.000000
 42
0.000000
  0
VERTEX
  8
BG_SILKSCREEN_TOP
 10
35.031000
 20
9.018800
 40
0.000000
 41
0.000000
 42
0.000000
  0
VERTEX
  8
BG_SILKSCREEN_TOP
 10
35.008200
 20
9.023000
 40
0.000000
 41
0.000000
 42
0.000000
  0
VERTEX
  8
BG_SILKSCREEN_TOP
 10
34.985400
 20
9.026600
 40
0.000000
 41
0.000000
 42
0.000000
  0
VERTEX
  8
BG_SILKSCREEN_TOP
 10
34.962400
 20
9.029800
 40
0.000000
 41
0.000000
 42
0.000000
  0
VERTEX
  8
BG_SILKSCREEN_TOP
 10
34.939400
 20
9.032600
 40
0.000000
 41
0.000000
 42
0.000000
  0
VERTEX
  8
BG_SILKSCREEN_TOP
 10
34.916400
 20
9.035200
 40
0.000000
 41
0.000000
 42
0.000000
  0
VERTEX
  8
BG_SILKSCREEN_TOP
 10
34.893400
 20
9.037400
 40
0.000000
 41
0.000000
 42
0.000000
  0
VERTEX
  8
BG_SILKSCREEN_TOP
 10
34.870400
 20
9.039400
 40
0.000000
 41
0.000000
 42
0.000000
  0
VERTEX
  8
BG_SILKSCREEN_TOP
 10
34.847200
 20
9.041000
 40
0.000000
 41
0.000000
 42
0.000000
  0
VERTEX
  8
BG_SILKSCREEN_TOP
 10
34.824200
 20
9.042200
 40
0.000000
 41
0.000000
 42
0.000000
  0
VERTEX
  8
BG_SILKSCREEN_TOP
 10
34.801000
 20
9.043200
 40
0.000000
 41
0.000000
 42
0.000000
  0
VERTEX
  8
BG_SILKSCREEN_TOP
 10
34.777800
 20
9.044000
 40
0.000000
 41
0.000000
 42
0.000000
  0
VERTEX
  8
BG_SILKSCREEN_TOP
 10
34.754800
 20
9.044400
 40
0.000000
 41
0.000000
 42
0.000000
  0
VERTEX
  8
BG_SILKSCREEN_TOP
 10
34.731600
 20
9.044400
 40
0.000000
 41
0.000000
 42
0.000000
  0
VERTEX
  8
BG_SILKSCREEN_TOP
 10
34.708400
 20
9.044200
 40
0.000000
 41
0.000000
 42
0.000000
  0
VERTEX
  8
BG_SILKSCREEN_TOP
 10
34.685400
 20
9.043600
 40
0.000000
 41
0.000000
 42
0.000000
  0
VERTEX
  8
BG_SILKSCREEN_TOP
 10
34.617200
 20
9.038600
 40
0.000000
 41
0.000000
 42
0.000000
  0
SEQEND
  0
POLYLINE
  8
BG_SILKSCREEN_TOP
 66
1
 70
1
 40
0.000000
 41
0.000000
 39
0.000000
  0
VERTEX
  8
BG_SILKSCREEN_TOP
 10
31.389800
 20
8.963600
 40
0.000000
 41
0.000000
 42
0.000000
  0
VERTEX
  8
BG_SILKSCREEN_TOP
 10
31.387200
 20
8.923800
 40
0.000000
 41
0.000000
 42
0.000000
  0
VERTEX
  8
BG_SILKSCREEN_TOP
 10
31.384400
 20
8.883800
 40
0.000000
 41
0.000000
 42
0.000000
  0
VERTEX
  8
BG_SILKSCREEN_TOP
 10
31.381800
 20
8.843800
 40
0.000000
 41
0.000000
 42
0.000000
  0
VERTEX
  8
BG_SILKSCREEN_TOP
 10
31.379000
 20
8.803800
 40
0.000000
 41
0.000000
 42
0.000000
  0
VERTEX
  8
BG_SILKSCREEN_TOP
 10
31.373800
 20
8.723800
 40
0.000000
 41
0.000000
 42
0.000000
  0
VERTEX
  8
BG_SILKSCREEN_TOP
 10
31.371800
 20
8.683800
 40
0.000000
 41
0.000000
 42
0.000000
  0
VERTEX
  8
BG_SILKSCREEN_TOP
 10
31.370000
 20
8.643800
 40
0.000000
 41
0.000000
 42
0.000000
  0
VERTEX
  8
BG_SILKSCREEN_TOP
 10
31.363000
 20
8.443800
 40
0.000000
 41
0.000000
 42
0.000000
  0
VERTEX
  8
BG_SILKSCREEN_TOP
 10
31.361800
 20
8.403600
 40
0.000000
 41
0.000000
 42
0.000000
  0
VERTEX
  8
BG_SILKSCREEN_TOP
 10
31.360400
 20
8.363600
 40
0.000000
 41
0.000000
 42
0.000000
  0
VERTEX
  8
BG_SILKSCREEN_TOP
 10
31.356800
 20
8.243600
 40
0.000000
 41
0.000000
 42
0.000000
  0
VERTEX
  8
BG_SILKSCREEN_TOP
 10
31.355600
 20
8.203400
 40
0.000000
 41
0.000000
 42
0.000000
  0
VERTEX
  8
BG_SILKSCREEN_TOP
 10
31.354600
 20
8.163400
 40
0.000000
 41
0.000000
 42
0.000000
  0
VERTEX
  8
BG_SILKSCREEN_TOP
 10
31.353400
 20
8.123400
 40
0.000000
 41
0.000000
 42
0.000000
  0
VERTEX
  8
BG_SILKSCREEN_TOP
 10
31.351400
 20
8.043400
 40
0.000000
 41
0.000000
 42
0.000000
  0
VERTEX
  8
BG_SILKSCREEN_TOP
 10
31.350400
 20
8.003200
 40
0.000000
 41
0.000000
 42
0.000000
  0
VERTEX
  8
BG_SILKSCREEN_TOP
 10
31.349400
 20
7.963200
 40
0.000000
 41
0.000000
 42
0.000000
  0
VERTEX
  8
BG_SILKSCREEN_TOP
 10
31.348600
 20
7.923200
 40
0.000000
 41
0.000000
 42
0.000000
  0
VERTEX
  8
BG_SILKSCREEN_TOP
 10
31.347600
 20
7.883200
 40
0.000000
 41
0.000000
 42
0.000000
  0
VERTEX
  8
BG_SILKSCREEN_TOP
 10
31.346800
 20
7.843200
 40
0.000000
 41
0.000000
 42
0.000000
  0
VERTEX
  8
BG_SILKSCREEN_TOP
 10
31.345800
 20
7.803000
 40
0.000000
 41
0.000000
 42
0.000000
  0
VERTEX
  8
BG_SILKSCREEN_TOP
 10
31.343400
 20
7.683000
 40
0.000000
 41
0.000000
 42
0.000000
  0
VERTEX
  8
BG_SILKSCREEN_TOP
 10
31.342600
 20
7.642800
 40
0.000000
 41
0.000000
 42
0.000000
  0
VERTEX
  8
BG_SILKSCREEN_TOP
 10
31.341800
 20
7.602800
 40
0.000000
 41
0.000000
 42
0.000000
  0
VERTEX
  8
BG_SILKSCREEN_TOP
 10
31.340800
 20
7.562800
 40
0.000000
 41
0.000000
 42
0.000000
  0
VERTEX
  8
BG_SILKSCREEN_TOP
 10
31.340000
 20
7.522800
 40
0.000000
 41
0.000000
 42
0.000000
  0
VERTEX
  8
BG_SILKSCREEN_TOP
 10
31.339200
 20
7.482600
 40
0.000000
 41
0.000000
 42
0.000000
  0
VERTEX
  8
BG_SILKSCREEN_TOP
 10
31.336000
 20
7.322600
 40
0.000000
 41
0.000000
 42
0.000000
  0
VERTEX
  8
BG_SILKSCREEN_TOP
 10
31.335000
 20
7.282400
 40
0.000000
 41
0.000000
 42
0.000000
  0
VERTEX
  8
BG_SILKSCREEN_TOP
 10
31.332600
 20
7.162400
 40
0.000000
 41
0.000000
 42
0.000000
  0
VERTEX
  8
BG_SILKSCREEN_TOP
 10
31.331800
 20
7.122200
 40
0.000000
 41
0.000000
 42
0.000000
  0
VERTEX
  8
BG_SILKSCREEN_TOP
 10
31.329400
 20
7.002200
 40
0.000000
 41
0.000000
 42
0.000000
  0
VERTEX
  8
BG_SILKSCREEN_TOP
 10
31.838000
 20
7.002200
 40
0.000000
 41
0.000000
 42
0.000000
  0
VERTEX
  8
BG_SILKSCREEN_TOP
 10
31.838200
 20
7.072400
 40
0.000000
 41
0.000000
 42
0.000000
  0
VERTEX
  8
BG_SILKSCREEN_TOP
 10
31.838200
 20
7.142600
 40
0.000000
 41
0.000000
 42
0.000000
  0
VERTEX
  8
BG_SILKSCREEN_TOP
 10
31.838400
 20
7.212600
 40
0.000000
 41
0.000000
 42
0.000000
  0
VERTEX
  8
BG_SILKSCREEN_TOP
 10
31.838800
 20
7.353000
 40
0.000000
 41
0.000000
 42
0.000000
  0
VERTEX
  8
BG_SILKSCREEN_TOP
 10
31.838800
 20
7.423200
 40
0.000000
 41
0.000000
 42
0.000000
  0
VERTEX
  8
BG_SILKSCREEN_TOP
 10
31.839200
 20
7.563600
 40
0.000000
 41
0.000000
 42
0.000000
  0
VERTEX
  8
BG_SILKSCREEN_TOP
 10
31.839200
 20
7.633800
 40
0.000000
 41
0.000000
 42
0.000000
  0
VERTEX
  8
BG_SILKSCREEN_TOP
 10
31.839600
 20
7.774200
 40
0.000000
 41
0.000000
 42
0.000000
  0
VERTEX
  8
BG_SILKSCREEN_TOP
 10
31.839600
 20
7.844400
 40
0.000000
 41
0.000000
 42
0.000000
  0
VERTEX
  8
BG_SILKSCREEN_TOP
 10
31.840000
 20
7.984800
 40
0.000000
 41
0.000000
 42
0.000000
  0
VERTEX
  8
BG_SILKSCREEN_TOP
 10
31.840400
 20
8.055000
 40
0.000000
 41
0.000000
 42
0.000000
  0
VERTEX
  8
BG_SILKSCREEN_TOP
 10
31.841000
 20
8.125200
 40
0.000000
 41
0.000000
 42
0.000000
  0
VERTEX
  8
BG_SILKSCREEN_TOP
 10
31.841600
 20
8.195200
 40
0.000000
 41
0.000000
 42
0.000000
  0
VERTEX
  8
BG_SILKSCREEN_TOP
 10
31.842400
 20
8.265400
 40
0.000000
 41
0.000000
 42
0.000000
  0
VERTEX
  8
BG_SILKSCREEN_TOP
 10
31.843400
 20
8.335600
 40
0.000000
 41
0.000000
 42
0.000000
  0
VERTEX
  8
BG_SILKSCREEN_TOP
 10
31.844800
 20
8.405800
 40
0.000000
 41
0.000000
 42
0.000000
  0
VERTEX
  8
BG_SILKSCREEN_TOP
 10
31.846600
 20
8.476000
 40
0.000000
 41
0.000000
 42
0.000000
  0
VERTEX
  8
BG_SILKSCREEN_TOP
 10
31.848600
 20
8.546200
 40
0.000000
 41
0.000000
 42
0.000000
  0
VERTEX
  8
BG_SILKSCREEN_TOP
 10
31.850800
 20
8.616200
 40
0.000000
 41
0.000000
 42
0.000000
  0
VERTEX
  8
BG_SILKSCREEN_TOP
 10
31.853200
 20
8.686400
 40
0.000000
 41
0.000000
 42
0.000000
  0
VERTEX
  8
BG_SILKSCREEN_TOP
 10
31.867800
 20
8.723200
 40
0.000000
 41
0.000000
 42
0.000000
  0
VERTEX
  8
BG_SILKSCREEN_TOP
 10
31.883400
 20
8.655000
 40
0.000000
 41
0.000000
 42
0.000000
  0
VERTEX
  8
BG_SILKSCREEN_TOP
 10
31.897000
 20
8.586200
 40
0.000000
 41
0.000000
 42
0.000000
  0
VERTEX
  8
BG_SILKSCREEN_TOP
 10
31.910400
 20
8.517600
 40
0.000000
 41
0.000000
 42
0.000000
  0
VERTEX
  8
BG_SILKSCREEN_TOP
 10
31.924000
 20
8.448800
 40
0.000000
 41
0.000000
 42
0.000000
  0
VERTEX
  8
BG_SILKSCREEN_TOP
 10
31.950400
 20
8.311200
 40
0.000000
 41
0.000000
 42
0.000000
  0
VERTEX
  8
BG_SILKSCREEN_TOP
 10
31.976400
 20
8.173600
 40
0.000000
 41
0.000000
 42
0.000000
  0
VERTEX
  8
BG_SILKSCREEN_TOP
 10
31.989200
 20
8.104800
 40
0.000000
 41
0.000000
 42
0.000000
  0
VERTEX
  8
BG_SILKSCREEN_TOP
 10
32.002000
 20
8.035800
 40
0.000000
 41
0.000000
 42
0.000000
  0
VERTEX
  8
BG_SILKSCREEN_TOP
 10
32.014800
 20
7.967000
 40
0.000000
 41
0.000000
 42
0.000000
  0
VERTEX
  8
BG_SILKSCREEN_TOP
 10
32.027400
 20
7.898000
 40
0.000000
 41
0.000000
 42
0.000000
  0
VERTEX
  8
BG_SILKSCREEN_TOP
 10
32.040000
 20
7.829200
 40
0.000000
 41
0.000000
 42
0.000000
  0
VERTEX
  8
BG_SILKSCREEN_TOP
 10
32.052400
 20
7.760200
 40
0.000000
 41
0.000000
 42
0.000000
  0
VERTEX
  8
BG_SILKSCREEN_TOP
 10
32.065000
 20
7.691400
 40
0.000000
 41
0.000000
 42
0.000000
  0
VERTEX
  8
BG_SILKSCREEN_TOP
 10
32.077400
 20
7.622400
 40
0.000000
 41
0.000000
 42
0.000000
  0
VERTEX
  8
BG_SILKSCREEN_TOP
 10
32.090000
 20
7.553400
 40
0.000000
 41
0.000000
 42
0.000000
  0
VERTEX
  8
BG_SILKSCREEN_TOP
 10
32.102600
 20
7.484600
 40
0.000000
 41
0.000000
 42
0.000000
  0
VERTEX
  8
BG_SILKSCREEN_TOP
 10
32.115000
 20
7.415600
 40
0.000000
 41
0.000000
 42
0.000000
  0
VERTEX
  8
BG_SILKSCREEN_TOP
 10
32.127600
 20
7.346800
 40
0.000000
 41
0.000000
 42
0.000000
  0
VERTEX
  8
BG_SILKSCREEN_TOP
 10
32.140000
 20
7.277800
 40
0.000000
 41
0.000000
 42
0.000000
  0
VERTEX
  8
BG_SILKSCREEN_TOP
 10
32.152600
 20
7.208800
 40
0.000000
 41
0.000000
 42
0.000000
  0
VERTEX
  8
BG_SILKSCREEN_TOP
 10
32.165000
 20
7.140000
 40
0.000000
 41
0.000000
 42
0.000000
  0
VERTEX
  8
BG_SILKSCREEN_TOP
 10
32.177600
 20
7.071000
 40
0.000000
 41
0.000000
 42
0.000000
  0
VERTEX
  8
BG_SILKSCREEN_TOP
 10
32.190200
 20
7.002200
 40
0.000000
 41
0.000000
 42
0.000000
  0
VERTEX
  8
BG_SILKSCREEN_TOP
 10
32.699400
 20
7.002200
 40
0.000000
 41
0.000000
 42
0.000000
  0
VERTEX
  8
BG_SILKSCREEN_TOP
 10
32.712000
 20
7.070600
 40
0.000000
 41
0.000000
 42
0.000000
  0
VERTEX
  8
BG_SILKSCREEN_TOP
 10
32.737200
 20
7.207800
 40
0.000000
 41
0.000000
 42
0.000000
  0
VERTEX
  8
BG_SILKSCREEN_TOP
 10
32.749800
 20
7.276200
 40
0.000000
 41
0.000000
 42
0.000000
  0
VERTEX
  8
BG_SILKSCREEN_TOP
 10
32.762400
 20
7.344800
 40
0.000000
 41
0.000000
 42
0.000000
  0
VERTEX
  8
BG_SILKSCREEN_TOP
 10
32.775000
 20
7.413200
 40
0.000000
 41
0.000000
 42
0.000000
  0
VERTEX
  8
BG_SILKSCREEN_TOP
 10
32.800200
 20
7.550400
 40
0.000000
 41
0.000000
 42
0.000000
  0
VERTEX
  8
BG_SILKSCREEN_TOP
 10
32.812800
 20
7.618800
 40
0.000000
 41
0.000000
 42
0.000000
  0
VERTEX
  8
BG_SILKSCREEN_TOP
 10
32.838000
 20
7.756000
 40
0.000000
 41
0.000000
 42
0.000000
  0
VERTEX
  8
BG_SILKSCREEN_TOP
 10
32.850600
 20
7.824400
 40
0.000000
 41
0.000000
 42
0.000000
  0
VERTEX
  8
BG_SILKSCREEN_TOP
 10
32.863200
 20
7.893000
 40
0.000000
 41
0.000000
 42
0.000000
  0
VERTEX
  8
BG_SILKSCREEN_TOP
 10
32.876000
 20
7.961400
 40
0.000000
 41
0.000000
 42
0.000000
  0
VERTEX
  8
BG_SILKSCREEN_TOP
 10
32.888600
 20
8.030000
 40
0.000000
 41
0.000000
 42
0.000000
  0
VERTEX
  8
BG_SILKSCREEN_TOP
 10
32.901400
 20
8.098400
 40
0.000000
 41
0.000000
 42
0.000000
  0
VERTEX
  8
BG_SILKSCREEN_TOP
 10
32.914200
 20
8.167000
 40
0.000000
 41
0.000000
 42
0.000000
  0
VERTEX
  8
BG_SILKSCREEN_TOP
 10
32.940200
 20
8.303800
 40
0.000000
 41
0.000000
 42
0.000000
  0
VERTEX
  8
BG_SILKSCREEN_TOP
 10
32.953400
 20
8.372400
 40
0.000000
 41
0.000000
 42
0.000000
  0
VERTEX
  8
BG_SILKSCREEN_TOP
 10
32.993000
 20
8.577600
 40
0.000000
 41
0.000000
 42
0.000000
  0
VERTEX
  8
BG_SILKSCREEN_TOP
 10
33.006400
 20
8.646000
 40
0.000000
 41
0.000000
 42
0.000000
  0
VERTEX
  8
BG_SILKSCREEN_TOP
 10
33.021600
 20
8.713800
 40
0.000000
 41
0.000000
 42
0.000000
  0
VERTEX
  8
BG_SILKSCREEN_TOP
 10
33.037800
 20
8.673000
 40
0.000000
 41
0.000000
 42
0.000000
  0
VERTEX
  8
BG_SILKSCREEN_TOP
 10
33.040000
 20
8.603400
 40
0.000000
 41
0.000000
 42
0.000000
  0
VERTEX
  8
BG_SILKSCREEN_TOP
 10
33.046000
 20
8.394600
 40
0.000000
 41
0.000000
 42
0.000000
  0
VERTEX
  8
BG_SILKSCREEN_TOP
 10
33.049600
 20
8.255400
 40
0.000000
 41
0.000000
 42
0.000000
  0
VERTEX
  8
BG_SILKSCREEN_TOP
 10
33.052800
 20
8.116200
 40
0.000000
 41
0.000000
 42
0.000000
  0
VERTEX
  8
BG_SILKSCREEN_TOP
 10
33.054200
 20
8.046600
 40
0.000000
 41
0.000000
 42
0.000000
  0
VERTEX
  8
BG_SILKSCREEN_TOP
 10
33.055600
 20
7.976800
 40
0.000000
 41
0.000000
 42
0.000000
  0
VERTEX
  8
BG_SILKSCREEN_TOP
 10
33.056800
 20
7.907200
 40
0.000000
 41
0.000000
 42
0.000000
  0
VERTEX
  8
BG_SILKSCREEN_TOP
 10
33.057800
 20
7.837600
 40
0.000000
 41
0.000000
 42
0.000000
  0
VERTEX
  8
BG_SILKSCREEN_TOP
 10
33.060200
 20
7.628800
 40
0.000000
 41
0.000000
 42
0.000000
  0
VERTEX
  8
BG_SILKSCREEN_TOP
 10
33.060800
 20
7.559000
 40
0.000000
 41
0.000000
 42
0.000000
  0
VERTEX
  8
BG_SILKSCREEN_TOP
 10
33.061400
 20
7.489400
 40
0.000000
 41
0.000000
 42
0.000000
  0
VERTEX
  8
BG_SILKSCREEN_TOP
 10
33.062600
 20
7.280600
 40
0.000000
 41
0.000000
 42
0.000000
  0
VERTEX
  8
BG_SILKSCREEN_TOP
 10
33.062800
 20
7.211000
 40
0.000000
 41
0.000000
 42
0.000000
  0
VERTEX
  8
BG_SILKSCREEN_TOP
 10
33.063000
 20
7.141200
 40
0.000000
 41
0.000000
 42
0.000000
  0
VERTEX
  8
BG_SILKSCREEN_TOP
 10
33.063400
 20
7.002000
 40
0.000000
 41
0.000000
 42
0.000000
  0
VERTEX
  8
BG_SILKSCREEN_TOP
 10
33.192200
 20
7.002000
 40
0.000000
 41
0.000000
 42
0.000000
  0
VERTEX
  8
BG_SILKSCREEN_TOP
 10
33.202200
 20
7.002200
 40
0.000000
 41
0.000000
 42
0.000000
  0
VERTEX
  8
BG_SILKSCREEN_TOP
 10
33.559200
 20
7.002200
 40
0.000000
 41
0.000000
 42
0.000000
  0
VERTEX
  8
BG_SILKSCREEN_TOP
 10
33.558200
 20
7.059200
 40
0.000000
 41
0.000000
 42
0.000000
  0
VERTEX
  8
BG_SILKSCREEN_TOP
 10
33.557200
 20
7.116400
 40
0.000000
 41
0.000000
 42
0.000000
  0
VERTEX
  8
BG_SILKSCREEN_TOP
 10
33.556200
 20
7.173400
 40
0.000000
 41
0.000000
 42
0.000000
  0
VERTEX
  8
BG_SILKSCREEN_TOP
 10
33.555000
 20
7.230600
 40
0.000000
 41
0.000000
 42
0.000000
  0
VERTEX
  8
BG_SILKSCREEN_TOP
 10
33.553000
 20
7.344600
 40
0.000000
 41
0.000000
 42
0.000000
  0
VERTEX
  8
BG_SILKSCREEN_TOP
 10
33.551800
 20
7.401800
 40
0.000000
 41
0.000000
 42
0.000000
  0
VERTEX
  8
BG_SILKSCREEN_TOP
 10
33.550800
 20
7.458800
 40
0.000000
 41
0.000000
 42
0.000000
  0
VERTEX
  8
BG_SILKSCREEN_TOP
 10
33.549800
 20
7.516000
 40
0.000000
 41
0.000000
 42
0.000000
  0
VERTEX
  8
BG_SILKSCREEN_TOP
 10
33.548800
 20
7.573000
 40
0.000000
 41
0.000000
 42
0.000000
  0
VERTEX
  8
BG_SILKSCREEN_TOP
 10
33.547600
 20
7.630200
 40
0.000000
 41
0.000000
 42
0.000000
  0
VERTEX
  8
BG_SILKSCREEN_TOP
 10
33.546600
 20
7.687200
 40
0.000000
 41
0.000000
 42
0.000000
  0
VERTEX
  8
BG_SILKSCREEN_TOP
 10
33.545600
 20
7.744400
 40
0.000000
 41
0.000000
 42
0.000000
  0
VERTEX
  8
BG_SILKSCREEN_TOP
 10
33.544400
 20
7.801400
 40
0.000000
 41
0.000000
 42
0.000000
  0
VERTEX
  8
BG_SILKSCREEN_TOP
 10
33.543400
 20
7.858600
 40
0.000000
 41
0.000000
 42
0.000000
  0
VERTEX
  8
BG_SILKSCREEN_TOP
 10
33.542400
 20
7.915600
 40
0.000000
 41
0.000000
 42
0.000000
  0
VERTEX
  8
BG_SILKSCREEN_TOP
 10
33.541400
 20
7.972800
 40
0.000000
 41
0.000000
 42
0.000000
  0
VERTEX
  8
BG_SILKSCREEN_TOP
 10
33.540200
 20
8.029800
 40
0.000000
 41
0.000000
 42
0.000000
  0
VERTEX
  8
BG_SILKSCREEN_TOP
 10
33.539200
 20
8.087000
 40
0.000000
 41
0.000000
 42
0.000000
  0
VERTEX
  8
BG_SILKSCREEN_TOP
 10
33.536800
 20
8.201000
 40
0.000000
 41
0.000000
 42
0.000000
  0
VERTEX
  8
BG_SILKSCREEN_TOP
 10
33.535600
 20
8.258200
 40
0.000000
 41
0.000000
 42
0.000000
  0
VERTEX
  8
BG_SILKSCREEN_TOP
 10
33.534400
 20
8.315200
 40
0.000000
 41
0.000000
 42
0.000000
  0
VERTEX
  8
BG_SILKSCREEN_TOP
 10
33.533000
 20
8.372400
 40
0.000000
 41
0.000000
 42
0.000000
  0
VERTEX
  8
BG_SILKSCREEN_TOP
 10
33.531600
 20
8.429400
 40
0.000000
 41
0.000000
 42
0.000000
  0
VERTEX
  8
BG_SILKSCREEN_TOP
 10
33.530200
 20
8.486600
 40
0.000000
 41
0.000000
 42
0.000000
  0
VERTEX
  8
BG_SILKSCREEN_TOP
 10
33.528800
 20
8.543600
 40
0.000000
 41
0.000000
 42
0.000000
  0
VERTEX
  8
BG_SILKSCREEN_TOP
 10
33.527200
 20
8.600600
 40
0.000000
 41
0.000000
 42
0.000000
  0
VERTEX
  8
BG_SILKSCREEN_TOP
 10
33.525600
 20
8.657800
 40
0.000000
 41
0.000000
 42
0.000000
  0
VERTEX
  8
BG_SILKSCREEN_TOP
 10
33.523800
 20
8.714800
 40
0.000000
 41
0.000000
 42
0.000000
  0
VERTEX
  8
BG_SILKSCREEN_TOP
 10
33.522200
 20
8.772000
 40
0.000000
 41
0.000000
 42
0.000000
  0
VERTEX
  8
BG_SILKSCREEN_TOP
 10
33.518600
 20
8.886000
 40
0.000000
 41
0.000000
 42
0.000000
  0
VERTEX
  8
BG_SILKSCREEN_TOP
 10
33.517000
 20
8.943200
 40
0.000000
 41
0.000000
 42
0.000000
  0
VERTEX
  8
BG_SILKSCREEN_TOP
 10
33.489600
 20
8.986000
 40
0.000000
 41
0.000000
 42
0.000000
  0
VERTEX
  8
BG_SILKSCREEN_TOP
 10
33.437400
 20
8.992800
 40
0.000000
 41
0.000000
 42
0.000000
  0
VERTEX
  8
BG_SILKSCREEN_TOP
 10
33.385000
 20
8.996200
 40
0.000000
 41
0.000000
 42
0.000000
  0
VERTEX
  8
BG_SILKSCREEN_TOP
 10
33.332400
 20
8.998000
 40
0.000000
 41
0.000000
 42
0.000000
  0
VERTEX
  8
BG_SILKSCREEN_TOP
 10
33.279800
 20
8.998000
 40
0.000000
 41
0.000000
 42
0.000000
  0
VERTEX
  8
BG_SILKSCREEN_TOP
 10
33.227200
 20
8.997600
 40
0.000000
 41
0.000000
 42
0.000000
  0
VERTEX
  8
BG_SILKSCREEN_TOP
 10
33.174800
 20
8.997200
 40
0.000000
 41
0.000000
 42
0.000000
  0
VERTEX
  8
BG_SILKSCREEN_TOP
 10
32.964400
 20
8.993200
 40
0.000000
 41
0.000000
 42
0.000000
  0
VERTEX
  8
BG_SILKSCREEN_TOP
 10
32.912000
 20
8.992200
 40
0.000000
 41
0.000000
 42
0.000000
  0
VERTEX
  8
BG_SILKSCREEN_TOP
 10
32.859400
 20
8.991200
 40
0.000000
 41
0.000000
 42
0.000000
  0
VERTEX
  8
BG_SILKSCREEN_TOP
 10
32.806800
 20
8.990000
 40
0.000000
 41
0.000000
 42
0.000000
  0
VERTEX
  8
BG_SILKSCREEN_TOP
 10
32.701600
 20
8.988000
 40
0.000000
 41
0.000000
 42
0.000000
  0
VERTEX
  8
BG_SILKSCREEN_TOP
 10
32.692000
 20
8.927000
 40
0.000000
 41
0.000000
 42
0.000000
  0
VERTEX
  8
BG_SILKSCREEN_TOP
 10
32.682200
 20
8.866200
 40
0.000000
 41
0.000000
 42
0.000000
  0
VERTEX
  8
BG_SILKSCREEN_TOP
 10
32.643000
 20
8.622200
 40
0.000000
 41
0.000000
 42
0.000000
  0
VERTEX
  8
BG_SILKSCREEN_TOP
 10
32.633200
 20
8.561400
 40
0.000000
 41
0.000000
 42
0.000000
  0
VERTEX
  8
BG_SILKSCREEN_TOP
 10
32.594000
 20
8.317400
 40
0.000000
 41
0.000000
 42
0.000000
  0
VERTEX
  8
BG_SILKSCREEN_TOP
 10
32.584200
 20
8.256600
 40
0.000000
 41
0.000000
 42
0.000000
  0
VERTEX
  8
BG_SILKSCREEN_TOP
 10
32.574400
 20
8.195600
 40
0.000000
 41
0.000000
 42
0.000000
  0
VERTEX
  8
BG_SILKSCREEN_TOP
 10
32.554400
 20
8.073600
 40
0.000000
 41
0.000000
 42
0.000000
  0
VERTEX
  8
BG_SILKSCREEN_TOP
 10
32.544400
 20
8.012800
 40
0.000000
 41
0.000000
 42
0.000000
  0
VERTEX
  8
BG_SILKSCREEN_TOP
 10
32.534200
 20
7.951800
 40
0.000000
 41
0.000000
 42
0.000000
  0
VERTEX
  8
BG_SILKSCREEN_TOP
 10
32.524000
 20
7.891000
 40
0.000000
 41
0.000000
 42
0.000000
  0
VERTEX
  8
BG_SILKSCREEN_TOP
 10
32.513600
 20
7.830200
 40
0.000000
 41
0.000000
 42
0.000000
  0
VERTEX
  8
BG_SILKSCREEN_TOP
 10
32.503000
 20
7.769400
 40
0.000000
 41
0.000000
 42
0.000000
  0
VERTEX
  8
BG_SILKSCREEN_TOP
 10
32.459800
 20
7.526200
 40
0.000000
 41
0.000000
 42
0.000000
  0
VERTEX
  8
BG_SILKSCREEN_TOP
 10
32.433200
 20
7.500400
 40
0.000000
 41
0.000000
 42
0.000000
  0
VERTEX
  8
BG_SILKSCREEN_TOP
 10
32.420200
 20
7.559400
 40
0.000000
 41
0.000000
 42
0.000000
  0
VERTEX
  8
BG_SILKSCREEN_TOP
 10
32.409400
 20
7.618800
 40
0.000000
 41
0.000000
 42
0.000000
  0
VERTEX
  8
BG_SILKSCREEN_TOP
 10
32.399000
 20
7.678200
 40
0.000000
 41
0.000000
 42
0.000000
  0
VERTEX
  8
BG_SILKSCREEN_TOP
 10
32.389200
 20
7.737600
 40
0.000000
 41
0.000000
 42
0.000000
  0
VERTEX
  8
BG_SILKSCREEN_TOP
 10
32.370000
 20
7.856800
 40
0.000000
 41
0.000000
 42
0.000000
  0
VERTEX
  8
BG_SILKSCREEN_TOP
 10
32.360400
 20
7.916200
 40
0.000000
 41
0.000000
 42
0.000000
  0
VERTEX
  8
BG_SILKSCREEN_TOP
 10
32.341200
 20
8.035400
 40
0.000000
 41
0.000000
 42
0.000000
  0
VERTEX
  8
BG_SILKSCREEN_TOP
 10
32.331600
 20
8.094800
 40
0.000000
 41
0.000000
 42
0.000000
  0
VERTEX
  8
BG_SILKSCREEN_TOP
 10
32.302800
 20
8.273600
 40
0.000000
 41
0.000000
 42
0.000000
  0
VERTEX
  8
BG_SILKSCREEN_TOP
 10
32.293200
 20
8.333000
 40
0.000000
 41
0.000000
 42
0.000000
  0
VERTEX
  8
BG_SILKSCREEN_TOP
 10
32.274000
 20
8.452200
 40
0.000000
 41
0.000000
 42
0.000000
  0
VERTEX
  8
BG_SILKSCREEN_TOP
 10
32.264400
 20
8.511600
 40
0.000000
 41
0.000000
 42
0.000000
  0
VERTEX
  8
BG_SILKSCREEN_TOP
 10
32.245200
 20
8.630800
 40
0.000000
 41
0.000000
 42
0.000000
  0
VERTEX
  8
BG_SILKSCREEN_TOP
 10
32.235800
 20
8.690400
 40
0.000000
 41
0.000000
 42
0.000000
  0
VERTEX
  8
BG_SILKSCREEN_TOP
 10
32.226200
 20
8.749800
 40
0.000000
 41
0.000000
 42
0.000000
  0
VERTEX
  8
BG_SILKSCREEN_TOP
 10
32.207000
 20
8.869000
 40
0.000000
 41
0.000000
 42
0.000000
  0
VERTEX
  8
BG_SILKSCREEN_TOP
 10
32.197400
 20
8.928400
 40
0.000000
 41
0.000000
 42
0.000000
  0
VERTEX
  8
BG_SILKSCREEN_TOP
 10
32.187800
 20
8.988000
 40
0.000000
 41
0.000000
 42
0.000000
  0
VERTEX
  8
BG_SILKSCREEN_TOP
 10
32.171800
 20
8.988400
 40
0.000000
 41
0.000000
 42
0.000000
  0
VERTEX
  8
BG_SILKSCREEN_TOP
 10
32.156000
 20
8.988600
 40
0.000000
 41
0.000000
 42
0.000000
  0
VERTEX
  8
BG_SILKSCREEN_TOP
 10
32.140000
 20
8.989000
 40
0.000000
 41
0.000000
 42
0.000000
  0
VERTEX
  8
BG_SILKSCREEN_TOP
 10
32.124200
 20
8.989200
 40
0.000000
 41
0.000000
 42
0.000000
  0
VERTEX
  8
BG_SILKSCREEN_TOP
 10
32.108200
 20
8.989600
 40
0.000000
 41
0.000000
 42
0.000000
  0
VERTEX
  8
BG_SILKSCREEN_TOP
 10
32.092400
 20
8.989800
 40
0.000000
 41
0.000000
 42
0.000000
  0
VERTEX
  8
BG_SILKSCREEN_TOP
 10
32.076400
 20
8.990200
 40
0.000000
 41
0.000000
 42
0.000000
  0
VERTEX
  8
BG_SILKSCREEN_TOP
 10
32.060600
 20
8.990600
 40
0.000000
 41
0.000000
 42
0.000000
  0
VERTEX
  8
BG_SILKSCREEN_TOP
 10
32.044600
 20
8.990800
 40
0.000000
 41
0.000000
 42
0.000000
  0
VERTEX
  8
BG_SILKSCREEN_TOP
 10
32.028800
 20
8.991200
 40
0.000000
 41
0.000000
 42
0.000000
  0
VERTEX
  8
BG_SILKSCREEN_TOP
 10
32.012800
 20
8.991400
 40
0.000000
 41
0.000000
 42
0.000000
  0
VERTEX
  8
BG_SILKSCREEN_TOP
 10
31.997000
 20
8.991800
 40
0.000000
 41
0.000000
 42
0.000000
  0
VERTEX
  8
BG_SILKSCREEN_TOP
 10
31.981000
 20
8.992000
 40
0.000000
 41
0.000000
 42
0.000000
  0
VERTEX
  8
BG_SILKSCREEN_TOP
 10
31.965200
 20
8.992400
 40
0.000000
 41
0.000000
 42
0.000000
  0
VERTEX
  8
BG_SILKSCREEN_TOP
 10
31.949200
 20
8.992600
 40
0.000000
 41
0.000000
 42
0.000000
  0
VERTEX
  8
BG_SILKSCREEN_TOP
 10
31.933200
 20
8.993000
 40
0.000000
 41
0.000000
 42
0.000000
  0
VERTEX
  8
BG_SILKSCREEN_TOP
 10
31.917400
 20
8.993200
 40
0.000000
 41
0.000000
 42
0.000000
  0
VERTEX
  8
BG_SILKSCREEN_TOP
 10
31.901400
 20
8.993600
 40
0.000000
 41
0.000000
 42
0.000000
  0
VERTEX
  8
BG_SILKSCREEN_TOP
 10
31.885600
 20
8.994000
 40
0.000000
 41
0.000000
 42
0.000000
  0
VERTEX
  8
BG_SILKSCREEN_TOP
 10
31.869600
 20
8.994200
 40
0.000000
 41
0.000000
 42
0.000000
  0
VERTEX
  8
BG_SILKSCREEN_TOP
 10
31.853800
 20
8.994600
 40
0.000000
 41
0.000000
 42
0.000000
  0
VERTEX
  8
BG_SILKSCREEN_TOP
 10
31.837800
 20
8.994800
 40
0.000000
 41
0.000000
 42
0.000000
  0
VERTEX
  8
BG_SILKSCREEN_TOP
 10
31.822000
 20
8.995200
 40
0.000000
 41
0.000000
 42
0.000000
  0
VERTEX
  8
BG_SILKSCREEN_TOP
 10
31.806000
 20
8.995400
 40
0.000000
 41
0.000000
 42
0.000000
  0
VERTEX
  8
BG_SILKSCREEN_TOP
 10
31.790200
 20
8.995800
 40
0.000000
 41
0.000000
 42
0.000000
  0
VERTEX
  8
BG_SILKSCREEN_TOP
 10
31.774200
 20
8.996200
 40
0.000000
 41
0.000000
 42
0.000000
  0
VERTEX
  8
BG_SILKSCREEN_TOP
 10
31.758400
 20
8.996400
 40
0.000000
 41
0.000000
 42
0.000000
  0
VERTEX
  8
BG_SILKSCREEN_TOP
 10
31.742400
 20
8.996800
 40
0.000000
 41
0.000000
 42
0.000000
  0
VERTEX
  8
BG_SILKSCREEN_TOP
 10
31.726600
 20
8.997000
 40
0.000000
 41
0.000000
 42
0.000000
  0
VERTEX
  8
BG_SILKSCREEN_TOP
 10
31.710600
 20
8.997400
 40
0.000000
 41
0.000000
 42
0.000000
  0
VERTEX
  8
BG_SILKSCREEN_TOP
 10
31.694800
 20
8.997600
 40
0.000000
 41
0.000000
 42
0.000000
  0
VERTEX
  8
BG_SILKSCREEN_TOP
 10
31.678800
 20
8.998000
 40
0.000000
 41
0.000000
 42
0.000000
  0
VERTEX
  8
BG_SILKSCREEN_TOP
 10
31.663000
 20
8.998400
 40
0.000000
 41
0.000000
 42
0.000000
  0
VERTEX
  8
BG_SILKSCREEN_TOP
 10
31.647000
 20
8.998600
 40
0.000000
 41
0.000000
 42
0.000000
  0
VERTEX
  8
BG_SILKSCREEN_TOP
 10
31.631000
 20
8.999000
 40
0.000000
 41
0.000000
 42
0.000000
  0
VERTEX
  8
BG_SILKSCREEN_TOP
 10
31.615200
 20
8.999200
 40
0.000000
 41
0.000000
 42
0.000000
  0
VERTEX
  8
BG_SILKSCREEN_TOP
 10
31.599200
 20
8.999600
 40
0.000000
 41
0.000000
 42
0.000000
  0
VERTEX
  8
BG_SILKSCREEN_TOP
 10
31.583400
 20
8.999800
 40
0.000000
 41
0.000000
 42
0.000000
  0
VERTEX
  8
BG_SILKSCREEN_TOP
 10
31.567400
 20
9.000200
 40
0.000000
 41
0.000000
 42
0.000000
  0
VERTEX
  8
BG_SILKSCREEN_TOP
 10
31.551600
 20
9.000600
 40
0.000000
 41
0.000000
 42
0.000000
  0
VERTEX
  8
BG_SILKSCREEN_TOP
 10
31.535600
 20
9.000800
 40
0.000000
 41
0.000000
 42
0.000000
  0
VERTEX
  8
BG_SILKSCREEN_TOP
 10
31.519800
 20
9.001200
 40
0.000000
 41
0.000000
 42
0.000000
  0
VERTEX
  8
BG_SILKSCREEN_TOP
 10
31.503800
 20
9.001400
 40
0.000000
 41
0.000000
 42
0.000000
  0
VERTEX
  8
BG_SILKSCREEN_TOP
 10
31.488000
 20
9.001800
 40
0.000000
 41
0.000000
 42
0.000000
  0
VERTEX
  8
BG_SILKSCREEN_TOP
 10
31.472000
 20
9.002000
 40
0.000000
 41
0.000000
 42
0.000000
  0
VERTEX
  8
BG_SILKSCREEN_TOP
 10
31.456200
 20
9.002400
 40
0.000000
 41
0.000000
 42
0.000000
  0
VERTEX
  8
BG_SILKSCREEN_TOP
 10
31.440200
 20
9.002800
 40
0.000000
 41
0.000000
 42
0.000000
  0
VERTEX
  8
BG_SILKSCREEN_TOP
 10
31.424400
 20
9.003000
 40
0.000000
 41
0.000000
 42
0.000000
  0
VERTEX
  8
BG_SILKSCREEN_TOP
 10
31.408400
 20
9.003400
 40
0.000000
 41
0.000000
 42
0.000000
  0
VERTEX
  8
BG_SILKSCREEN_TOP
 10
31.392600
 20
9.003600
 40
0.000000
 41
0.000000
 42
0.000000
  0
SEQEND
  0
POLYLINE
  8
PIN_TOP
 66
1
 70
1
 40
0.000000
 41
0.000000
 39
0.000000
  0
VERTEX
  8
PIN_TOP
 10
35.900000
 20
38.000000
 40
0.000000
 41
0.000000
 42
0.000000
  0
VERTEX
  8
PIN_TOP
 10
41.900000
 20
38.000000
 40
0.000000
 41
0.000000
 42
0.000000
  0
VERTEX
  8
PIN_TOP
 10
41.900000
 20
36.000000
 40
0.000000
 41
0.000000
 42
0.000000
  0
VERTEX
  8
PIN_TOP
 10
35.900000
 20
36.000000
 40
0.000000
 41
0.000000
 42
0.000000
  0
SEQEND
  0
POLYLINE
  8
PIN_SOLDERMASK_TOP
 66
1
 70
1
 40
0.000000
 41
0.000000
 39
0.000000
  0
VERTEX
  8
PIN_SOLDERMASK_TOP
 10
35.850000
 20
38.050000
 40
0.000000
 41
0.000000
 42
0.000000
  0
VERTEX
  8
PIN_SOLDERMASK_TOP
 10
41.950000
 20
38.050000
 40
0.000000
 41
0.000000
 42
0.000000
  0
VERTEX
  8
PIN_SOLDERMASK_TOP
 10
41.950000
 20
35.950000
 40
0.000000
 41
0.000000
 42
0.000000
  0
VERTEX
  8
PIN_SOLDERMASK_TOP
 10
35.850000
 20
35.950000
 40
0.000000
 41
0.000000
 42
0.000000
  0
SEQEND
  0
POLYLINE
  8
PIN_TOP
 66
1
 70
1
 40
0.000000
 41
0.000000
 39
0.000000
  0
VERTEX
  8
PIN_TOP
 10
31.400000
 20
36.000000
 40
0.000000
 41
0.000000
 42
0.000000
  0
VERTEX
  8
PIN_TOP
 10
27.900000
 20
36.000000
 40
0.000000
 41
0.000000
 42
0.000000
  0
VERTEX
  8
PIN_TOP
 10
27.900000
 20
38.000000
 40
0.000000
 41
0.000000
 42
0.000000
  0
VERTEX
  8
PIN_TOP
 10
31.400000
 20
38.000000
 40
0.000000
 41
0.000000
 42
0.000000
  0
SEQEND
  0
POLYLINE
  8
PIN_SOLDERMASK_TOP
 66
1
 70
1
 40
0.000000
 41
0.000000
 39
0.000000
  0
VERTEX
  8
PIN_SOLDERMASK_TOP
 10
31.450000
 20
35.950000
 40
0.000000
 41
0.000000
 42
0.000000
  0
VERTEX
  8
PIN_SOLDERMASK_TOP
 10
27.850000
 20
35.950000
 40
0.000000
 41
0.000000
 42
0.000000
  0
VERTEX
  8
PIN_SOLDERMASK_TOP
 10
27.850000
 20
38.050000
 40
0.000000
 41
0.000000
 42
0.000000
  0
VERTEX
  8
PIN_SOLDERMASK_TOP
 10
31.450000
 20
38.050000
 40
0.000000
 41
0.000000
 42
0.000000
  0
SEQEND
  0
POLYLINE
  8
PIN_TOP
 66
1
 70
1
 40
0.000000
 41
0.000000
 39
0.000000
  0
VERTEX
  8
PIN_TOP
 10
35.900000
 20
34.000000
 40
0.000000
 41
0.000000
 42
0.000000
  0
VERTEX
  8
PIN_TOP
 10
41.900000
 20
34.000000
 40
0.000000
 41
0.000000
 42
0.000000
  0
VERTEX
  8
PIN_TOP
 10
41.900000
 20
32.000000
 40
0.000000
 41
0.000000
 42
0.000000
  0
VERTEX
  8
PIN_TOP
 10
35.900000
 20
32.000000
 40
0.000000
 41
0.000000
 42
0.000000
  0
SEQEND
  0
POLYLINE
  8
PIN_SOLDERMASK_TOP
 66
1
 70
1
 40
0.000000
 41
0.000000
 39
0.000000
  0
VERTEX
  8
PIN_SOLDERMASK_TOP
 10
35.850000
 20
34.050000
 40
0.000000
 41
0.000000
 42
0.000000
  0
VERTEX
  8
PIN_SOLDERMASK_TOP
 10
41.950000
 20
34.050000
 40
0.000000
 41
0.000000
 42
0.000000
  0
VERTEX
  8
PIN_SOLDERMASK_TOP
 10
41.950000
 20
31.950000
 40
0.000000
 41
0.000000
 42
0.000000
  0
VERTEX
  8
PIN_SOLDERMASK_TOP
 10
35.850000
 20
31.950000
 40
0.000000
 41
0.000000
 42
0.000000
  0
SEQEND
  0
POLYLINE
  8
PIN_TOP
 66
1
 70
1
 40
0.000000
 41
0.000000
 39
0.000000
  0
VERTEX
  8
PIN_TOP
 10
31.400000
 20
32.000000
 40
0.000000
 41
0.000000
 42
0.000000
  0
VERTEX
  8
PIN_TOP
 10
27.900000
 20
32.000000
 40
0.000000
 41
0.000000
 42
0.000000
  0
VERTEX
  8
PIN_TOP
 10
27.900000
 20
34.000000
 40
0.000000
 41
0.000000
 42
0.000000
  0
VERTEX
  8
PIN_TOP
 10
31.400000
 20
34.000000
 40
0.000000
 41
0.000000
 42
0.000000
  0
SEQEND
  0
POLYLINE
  8
PIN_SOLDERMASK_TOP
 66
1
 70
1
 40
0.000000
 41
0.000000
 39
0.000000
  0
VERTEX
  8
PIN_SOLDERMASK_TOP
 10
31.450000
 20
31.950000
 40
0.000000
 41
0.000000
 42
0.000000
  0
VERTEX
  8
PIN_SOLDERMASK_TOP
 10
27.850000
 20
31.950000
 40
0.000000
 41
0.000000
 42
0.000000
  0
VERTEX
  8
PIN_SOLDERMASK_TOP
 10
27.850000
 20
34.050000
 40
0.000000
 41
0.000000
 42
0.000000
  0
VERTEX
  8
PIN_SOLDERMASK_TOP
 10
31.450000
 20
34.050000
 40
0.000000
 41
0.000000
 42
0.000000
  0
SEQEND
  0
POLYLINE
  8
PG_SOLDERMASK_TOP
 66
1
 70
0
 40
0.000000
 41
0.000000
 39
0.000000
  0
VERTEX
  8
PG_SOLDERMASK_TOP
 10
42.550000
 20
39.250000
 40
0.150000
 41
0.150000
 42
0.000000
  0
VERTEX
  8
PG_SOLDERMASK_TOP
 10
42.550000
 20
38.250000
 40
0.150000
 41
0.150000
 42
0.000000
  0
SEQEND
  0
POLYLINE
  8
PG_SOLDERMASK_TOP
 66
1
 70
0
 40
0.000000
 41
0.000000
 39
0.000000
  0
VERTEX
  8
PG_SOLDERMASK_TOP
 10
41.550000
 20
39.250000
 40
0.150000
 41
0.150000
 42
0.000000
  0
VERTEX
  8
PG_SOLDERMASK_TOP
 10
42.550000
 20
39.250000
 40
0.150000
 41
0.150000
 42
0.000000
  0
SEQEND
  0
POLYLINE
  8
PG_SOLDERMASK_TOP
 66
1
 70
0
 40
0.000000
 41
0.000000
 39
0.000000
  0
VERTEX
  8
PG_SOLDERMASK_TOP
 10
42.550000
 20
31.750000
 40
0.150000
 41
0.150000
 42
0.000000
  0
VERTEX
  8
PG_SOLDERMASK_TOP
 10
42.550000
 20
30.750000
 40
0.150000
 41
0.150000
 42
0.000000
  0
SEQEND
  0
POLYLINE
  8
PG_SOLDERMASK_TOP
 66
1
 70
0
 40
0.000000
 41
0.000000
 39
0.000000
  0
VERTEX
  8
PG_SOLDERMASK_TOP
 10
42.550000
 20
30.750000
 40
0.150000
 41
0.150000
 42
0.000000
  0
VERTEX
  8
PG_SOLDERMASK_TOP
 10
41.550000
 20
30.750000
 40
0.150000
 41
0.150000
 42
0.000000
  0
SEQEND
  0
POLYLINE
  8
PG_SOLDERMASK_TOP
 66
1
 70
0
 40
0.000000
 41
0.000000
 39
0.000000
  0
VERTEX
  8
PG_SOLDERMASK_TOP
 10
27.250000
 20
38.250000
 40
0.150000
 41
0.150000
 42
0.000000
  0
VERTEX
  8
PG_SOLDERMASK_TOP
 10
27.250000
 20
39.250000
 40
0.150000
 41
0.150000
 42
0.000000
  0
SEQEND
  0
POLYLINE
  8
PG_SOLDERMASK_TOP
 66
1
 70
0
 40
0.000000
 41
0.000000
 39
0.000000
  0
VERTEX
  8
PG_SOLDERMASK_TOP
 10
27.250000
 20
39.250000
 40
0.150000
 41
0.150000
 42
0.000000
  0
VERTEX
  8
PG_SOLDERMASK_TOP
 10
28.250000
 20
39.250000
 40
0.150000
 41
0.150000
 42
0.000000
  0
SEQEND
  0
POLYLINE
  8
PG_SOLDERMASK_TOP
 66
1
 70
0
 40
0.000000
 41
0.000000
 39
0.000000
  0
VERTEX
  8
PG_SOLDERMASK_TOP
 10
28.250000
 20
30.750000
 40
0.150000
 41
0.150000
 42
0.000000
  0
VERTEX
  8
PG_SOLDERMASK_TOP
 10
27.250000
 20
30.750000
 40
0.150000
 41
0.150000
 42
0.000000
  0
SEQEND
  0
POLYLINE
  8
PG_SOLDERMASK_TOP
 66
1
 70
0
 40
0.000000
 41
0.000000
 39
0.000000
  0
VERTEX
  8
PG_SOLDERMASK_TOP
 10
27.250000
 20
30.750000
 40
0.150000
 41
0.150000
 42
0.000000
  0
VERTEX
  8
PG_SOLDERMASK_TOP
 10
27.250000
 20
31.750000
 40
0.150000
 41
0.150000
 42
0.000000
  0
SEQEND
  0
POLYLINE
  8
PG_SOLDERMASK_TOP
 66
1
 70
1
 40
0.000000
 41
0.000000
 39
0.000000
  0
VERTEX
  8
PG_SOLDERMASK_TOP
 10
35.150000
 20
30.150000
 40
0.000000
 41
0.000000
 42
1.000000
  0
VERTEX
  8
PG_SOLDERMASK_TOP
 10
34.650000
 20
30.150000
 40
0.000000
 41
0.000000
 42
1.000000
  0
SEQEND
  0
POLYLINE
  8
PG_SOLDERMASK_TOP
 66
1
 70
1
 40
0.000000
 41
0.000000
 39
0.000000
  0
VERTEX
  8
PG_SOLDERMASK_TOP
 10
35.150000
 20
39.850000
 40
0.000000
 41
0.000000
 42
1.000000
  0
VERTEX
  8
PG_SOLDERMASK_TOP
 10
34.650000
 20
39.850000
 40
0.000000
 41
0.000000
 42
1.000000
  0
SEQEND
  0
TEXT
  8
RD_SILKSCREEN_TOP
 10
27.150000
 20
40.350000
 11
0.000000
 21
0.000000
 40
0.600000
 41
1.083333
 50
0.000000
  7
STANDARD
 71
0
 72
0
  1
CON1
 73
0
  0
CIRCLE
  8
PIN_TOP
 10
15.000000
 20
35.000000
 40
1.700000
  0
CIRCLE
  8
PIN_SOLDERMASK_TOP
 10
15.000000
 20
35.000000
 40
2.200000
  0
INSERT
  8
MA_NCLEGEND-1-2
  2
FIGURE_CIRCLE
 10
15.000000
 20
35.000000
 41
3.400000
 42
3.400000
 50
0.000000
  0
TEXT
  8
MA_NCLEGEND-1-2
 10
13.866667
 20
34.150000
 11
15.000000
 21
35.000000
 40
1.700000
 41
1.000000
 50
0.000000
  7
STANDARD
 71
0
 72
1
  1
B
 73
2
  0
CIRCLE
  8
PIN_TOP
 10
35.000000
 20
15.000000
 40
1.700000
  0
CIRCLE
  8
PIN_SOLDERMASK_TOP
 10
35.000000
 20
15.000000
 40
2.200000
  0
INSERT
  8
MA_NCLEGEND-1-2
  2
FIGURE_CIRCLE
 10
35.000000
 20
15.000000
 41
3.400000
 42
3.400000
 50
0.000000
  0
TEXT
  8
MA_NCLEGEND-1-2
 10
33.866667
 20
14.150000
 11
35.000000
 21
15.000000
 40
1.700000
 41
1.000000
 50
0.000000
  7
STANDARD
 71
0
 72
1
  1
B
 73
2
  0
CIRCLE
  8
PIN_TOP
 10
55.000000
 20
35.000000
 40
1.700000
  0
CIRCLE
  8
PIN_SOLDERMASK_TOP
 10
55.000000
 20
35.000000
 40
2.200000
  0
INSERT
  8
MA_NCLEGEND-1-2
  2
FIGURE_CIRCLE
 10
55.000000
 20
35.000000
 41
3.400000
 42
3.400000
 50
0.000000
  0
TEXT
  8
MA_NCLEGEND-1-2
 10
53.866667
 20
34.150000
 11
55.000000
 21
35.000000
 40
1.700000
 41
1.000000
 50
0.000000
  7
STANDARD
 71
0
 72
1
  1
B
 73
2
  0
CIRCLE
  8
PIN_TOP
 10
35.000000
 20
55.000000
 40
1.700000
  0
CIRCLE
  8
PIN_SOLDERMASK_TOP
 10
35.000000
 20
55.000000
 40
2.200000
  0
INSERT
  8
MA_NCLEGEND-1-2
  2
FIGURE_CIRCLE
 10
35.000000
 20
55.000000
 41
3.400000
 42
3.400000
 50
0.000000
  0
TEXT
  8
MA_NCLEGEND-1-2
 10
33.866667
 20
54.150000
 11
35.000000
 21
55.000000
 40
1.700000
 41
1.000000
 50
0.000000
  7
STANDARD
 71
0
 72
1
  1
B
 73
2
  0
CIRCLE
  8
PIN_TOP
 10
1.390700
 20
35.000000
 40
1.000000
  0
CIRCLE
  8
PIN_SOLDERMASK_TOP
 10
1.390700
 20
35.000000
 40
1.400000
  0
INSERT
  8
MA_NCLEGEND-1-2
  2
FIGURE_CIRCLE
 10
1.390700
 20
35.000000
 41
2.000000
 42
2.000000
 50
0.000000
  0
TEXT
  8
MA_NCLEGEND-1-2
 10
0.724033
 20
34.500000
 11
1.390700
 21
35.000000
 40
1.000000
 41
1.000000
 50
0.000000
  7
STANDARD
 71
0
 72
1
  1
A
 73
2
  0
CIRCLE
  8
PIN_TOP
 10
35.000000
 20
1.500000
 40
1.000000
  0
CIRCLE
  8
PIN_SOLDERMASK_TOP
 10
35.000000
 20
1.500000
 40
1.400000
  0
INSERT
  8
MA_NCLEGEND-1-2
  2
FIGURE_CIRCLE
 10
35.000000
 20
1.500000
 41
2.000000
 42
2.000000
 50
0.000000
  0
TEXT
  8
MA_NCLEGEND-1-2
 10
34.333333
 20
1.000000
 11
35.000000
 21
1.500000
 40
1.000000
 41
1.000000
 50
0.000000
  7
STANDARD
 71
0
 72
1
  1
A
 73
2
  0
CIRCLE
  8
PIN_TOP
 10
35.000000
 20
68.500000
 40
1.000000
  0
CIRCLE
  8
PIN_SOLDERMASK_TOP
 10
35.000000
 20
68.500000
 40
1.400000
  0
INSERT
  8
MA_NCLEGEND-1-2
  2
FIGURE_CIRCLE
 10
35.000000
 20
68.500000
 41
2.000000
 42
2.000000
 50
0.000000
  0
TEXT
  8
MA_NCLEGEND-1-2
 10
34.333333
 20
68.000000
 11
35.000000
 21
68.500000
 40
1.000000
 41
1.000000
 50
0.000000
  7
STANDARD
 71
0
 72
1
  1
A
 73
2
  0
CIRCLE
  8
PIN_TOP
 10
68.390700
 20
35.000000
 40
1.000000
  0
CIRCLE
  8
PIN_SOLDERMASK_TOP
 10
68.390700
 20
35.000000
 40
1.400000
  0
INSERT
  8
MA_NCLEGEND-1-2
  2
FIGURE_CIRCLE
 10
68.390700
 20
35.000000
 41
2.000000
 42
2.000000
 50
0.000000
  0
TEXT
  8
MA_NCLEGEND-1-2
 10
67.724033
 20
34.500000
 11
68.390700
 21
35.000000
 40
1.000000
 41
1.000000
 50
0.000000
  7
STANDARD
 71
0
 72
1
  1
A
 73
2
  0
CIRCLE
  8
PIN_TOP
 10
46.250000
 20
35.000000
 40
3.000000
  0
CIRCLE
  8
PIN_SOLDERMASK_TOP
 10
46.250000
 20
35.000000
 40
3.500000
  0
INSERT
  8
MA_NCLEGEND-1-2
  2
FIGURE_CIRCLE
 10
46.250000
 20
35.000000
 41
6.000000
 42
6.000000
 50
0.000000
  0
TEXT
  8
MA_NCLEGEND-1-2
 10
44.250000
 20
33.500000
 11
46.250000
 21
35.000000
 40
3.000000
 41
1.000000
 50
0.000000
  7
STANDARD
 71
0
 72
1
  1
C
 73
2
  0
CIRCLE
  8
PIN_TOP
 10
56.850000
 20
2.800000
 40
0.750000
  0
POLYLINE
  8
PIN_SOLDERMASK_TOP
 66
1
 70
1
 40
0.000000
 41
0.000000
 39
0.000000
  0
VERTEX
  8
PIN_SOLDERMASK_TOP
 10
58.350000
 20
1.300000
 40
0.000000
 41
0.000000
 42
0.000000
  0
VERTEX
  8
PIN_SOLDERMASK_TOP
 10
55.350000
 20
1.300000
 40
0.000000
 41
0.000000
 42
0.000000
  0
VERTEX
  8
PIN_SOLDERMASK_TOP
 10
55.350000
 20
4.300000
 40
0.000000
 41
0.000000
 42
0.000000
  0
VERTEX
  8
PIN_SOLDERMASK_TOP
 10
58.350000
 20
4.300000
 40
0.000000
 41
0.000000
 42
0.000000
  0
SEQEND
  0
CIRCLE
  8
PIN_TOP
 10
12.750000
 20
67.150000
 40
0.750000
  0
POLYLINE
  8
PIN_SOLDERMASK_TOP
 66
1
 70
1
 40
0.000000
 41
0.000000
 39
0.000000
  0
VERTEX
  8
PIN_SOLDERMASK_TOP
 10
14.250000
 20
65.650000
 40
0.000000
 41
0.000000
 42
0.000000
  0
VERTEX
  8
PIN_SOLDERMASK_TOP
 10
11.250000
 20
65.650000
 40
0.000000
 41
0.000000
 42
0.000000
  0
VERTEX
  8
PIN_SOLDERMASK_TOP
 10
11.250000
 20
68.650000
 40
0.000000
 41
0.000000
 42
0.000000
  0
VERTEX
  8
PIN_SOLDERMASK_TOP
 10
14.250000
 20
68.650000
 40
0.000000
 41
0.000000
 42
0.000000
  0
SEQEND
  0
CIRCLE
  8
PIN_TOP
 10
7.282600
 20
27.340100
 40
1.500000
  0
CIRCLE
  8
PIN_SOLDERMASK_TOP
 10
7.282600
 20
27.340100
 40
1.550000
  0
POLYLINE
  8
PG_PASTEMASK_TOP
 66
1
 70
1
 40
0.000000
 41
0.000000
 39
0.000000
  0
VERTEX
  8
PG_PASTEMASK_TOP
 10
8.782600
 20
27.340100
 40
0.000000
 41
0.000000
 42
1.000000
  0
VERTEX
  8
PG_PASTEMASK_TOP
 10
5.782600
 20
27.340100
 40
0.000000
 41
0.000000
 42
1.000000
  0
SEQEND
  0
CIRCLE
  8
PIN_TOP
 10
7.282600
 20
42.272900
 40
1.500000
  0
CIRCLE
  8
PIN_SOLDERMASK_TOP
 10
7.282600
 20
42.272900
 40
1.550000
  0
POLYLINE
  8
PG_PASTEMASK_TOP
 66
1
 70
1
 40
0.000000
 41
0.000000
 39
0.000000
  0
VERTEX
  8
PG_PASTEMASK_TOP
 10
8.782600
 20
42.272900
 40
0.000000
 41
0.000000
 42
1.000000
  0
VERTEX
  8
PG_PASTEMASK_TOP
 10
5.782600
 20
42.272900
 40
0.000000
 41
0.000000
 42
1.000000
  0
SEQEND
  0
CIRCLE
  8
PIN_SOLDERMASK_TOP
 10
22.700000
 20
52.800000
 40
1.000000
  0
POLYLINE
  8
MA_NCLEGEND-1-2
 66
1
 70
0
 40
0.000000
 41
0.000000
 39
0.000000
  0
VERTEX
  8
MA_NCLEGEND-1-2
 10
1.560000
 20
-30.050000
 40
0.000000
 41
0.000000
 42
0.000000
  0
VERTEX
  8
MA_NCLEGEND-1-2
 10
28.560000
 20
-30.050000
 40
0.000000
 41
0.000000
 42
0.000000
  0
SEQEND
  0
POLYLINE
  8
MA_NCLEGEND-1-2
 66
1
 70
0
 40
0.000000
 41
0.000000
 39
0.000000
  0
VERTEX
  8
MA_NCLEGEND-1-2
 10
1.560000
 20
-21.050000
 40
0.000000
 41
0.000000
 42
0.000000
  0
VERTEX
  8
MA_NCLEGEND-1-2
 10
28.560000
 20
-21.050000
 40
0.000000
 41
0.000000
 42
0.000000
  0
SEQEND
  0
POLYLINE
  8
MA_NCLEGEND-1-2
 66
1
 70
0
 40
0.000000
 41
0.000000
 39
0.000000
  0
VERTEX
  8
MA_NCLEGEND-1-2
 10
1.560000
 20
-12.050000
 40
0.000000
 41
0.000000
 42
0.000000
  0
VERTEX
  8
MA_NCLEGEND-1-2
 10
28.560000
 20
-12.050000
 40
0.000000
 41
0.000000
 42
0.000000
  0
SEQEND
  0
POLYLINE
  8
MA_NCLEGEND-1-2
 66
1
 70
0
 40
0.000000
 41
0.000000
 39
0.000000
  0
VERTEX
  8
MA_NCLEGEND-1-2
 10
24.260000
 20
-10.850000
 40
0.000000
 41
0.000000
 42
0.000000
  0
VERTEX
  8
MA_NCLEGEND-1-2
 10
24.260000
 20
-39.050000
 40
0.000000
 41
0.000000
 42
0.000000
  0
SEQEND
  0
POLYLINE
  8
MA_NCLEGEND-1-2
 66
1
 70
0
 40
0.000000
 41
0.000000
 39
0.000000
  0
VERTEX
  8
MA_NCLEGEND-1-2
 10
17.160000
 20
-10.850000
 40
0.000000
 41
0.000000
 42
0.000000
  0
VERTEX
  8
MA_NCLEGEND-1-2
 10
17.160000
 20
-39.050000
 40
0.000000
 41
0.000000
 42
0.000000
  0
SEQEND
  0
POLYLINE
  8
MA_NCLEGEND-1-2
 66
1
 70
0
 40
0.000000
 41
0.000000
 39
0.000000
  0
VERTEX
  8
MA_NCLEGEND-1-2
 10
6.560000
 20
-10.850000
 40
0.000000
 41
0.000000
 42
0.000000
  0
VERTEX
  8
MA_NCLEGEND-1-2
 10
6.560000
 20
-39.050000
 40
0.000000
 41
0.000000
 42
0.000000
  0
SEQEND
  0
POLYLINE
  8
MA_NCLEGEND-1-2
 66
1
 70
0
 40
0.000000
 41
0.000000
 39
0.000000
  0
VERTEX
  8
MA_NCLEGEND-1-2
 10
1.560000
 20
-10.850000
 40
0.000000
 41
0.000000
 42
0.000000
  0
VERTEX
  8
MA_NCLEGEND-1-2
 10
28.560000
 20
-10.850000
 40
0.000000
 41
0.000000
 42
0.000000
  0
SEQEND
  0
POLYLINE
  8
MA_NCLEGEND-1-2
 66
1
 70
0
 40
0.000000
 41
0.000000
 39
0.000000
  0
VERTEX
  8
MA_NCLEGEND-1-2
 10
1.560000
 20
-9.650000
 40
0.000000
 41
0.000000
 42
0.000000
  0
VERTEX
  8
MA_NCLEGEND-1-2
 10
28.560000
 20
-9.650000
 40
0.000000
 41
0.000000
 42
0.000000
  0
SEQEND
  0
POLYLINE
  8
BG_OUTLINE
 66
1
 70
0
 40
0.000000
 41
0.000000
 39
0.000000
  0
VERTEX
  8
BG_OUTLINE
 10
0.000000
 20
70.000000
 40
0.100000
 41
0.100000
 42
0.000000
  0
VERTEX
  8
BG_OUTLINE
 10
70.000000
 20
70.000000
 40
0.100000
 41
0.100000
 42
0.000000
  0
VERTEX
  8
BG_OUTLINE
 10
70.000000
 20
0.000000
 40
0.100000
 41
0.100000
 42
0.000000
  0
VERTEX
  8
BG_OUTLINE
 10
0.000000
 20
0.000000
 40
0.100000
 41
0.100000
 42
0.000000
  0
VERTEX
  8
BG_OUTLINE
 10
0.000000
 20
70.000000
 40
0.100000
 41
0.100000
 42
0.000000
  0
SEQEND
  0
POLYLINE
  8
BG_SILKSCREEN_TOP
 66
1
 70
0
 40
0.000000
 41
0.000000
 39
0.000000
  0
VERTEX
  8
BG_SILKSCREEN_TOP
 10
40.475000
 20
28.075000
 40
0.300000
 41
0.300000
 42
0.000000
  0
VERTEX
  8
BG_SILKSCREEN_TOP
 10
39.425000
 20
28.075000
 40
0.300000
 41
0.300000
 42
0.000000
  0
SEQEND
  0
POLYLINE
  8
BG_SILKSCREEN_TOP
 66
1
 70
0
 40
0.000000
 41
0.000000
 39
0.000000
  0
VERTEX
  8
BG_SILKSCREEN_TOP
 10
40.475000
 20
27.125000
 40
0.300000
 41
0.300000
 42
0.000000
  0
VERTEX
  8
BG_SILKSCREEN_TOP
 10
40.475000
 20
28.075000
 40
0.300000
 41
0.300000
 42
0.000000
  0
SEQEND
  0
POLYLINE
  8
BG_SILKSCREEN_TOP
 66
1
 70
0
 40
0.000000
 41
0.000000
 39
0.000000
  0
VERTEX
  8
BG_SILKSCREEN_TOP
 10
29.775000
 20
28.075000
 40
0.300000
 41
0.300000
 42
0.000000
  0
VERTEX
  8
BG_SILKSCREEN_TOP
 10
29.775000
 20
27.025000
 40
0.300000
 41
0.300000
 42
0.000000
  0
SEQEND
  0
POLYLINE
  8
BG_SILKSCREEN_TOP
 66
1
 70
0
 40
0.000000
 41
0.000000
 39
0.000000
  0
VERTEX
  8
BG_SILKSCREEN_TOP
 10
30.725000
 20
28.075000
 40
0.300000
 41
0.300000
 42
0.000000
  0
VERTEX
  8
BG_SILKSCREEN_TOP
 10
29.775000
 20
28.075000
 40
0.300000
 41
0.300000
 42
0.000000
  0
SEQEND
  0
POLYLINE
  8
BG_SILKSCREEN_TOP
 66
1
 70
0
 40
0.000000
 41
0.000000
 39
0.000000
  0
VERTEX
  8
BG_SILKSCREEN_TOP
 10
29.775000
 20
21.875000
 40
0.300000
 41
0.300000
 42
0.000000
  0
VERTEX
  8
BG_SILKSCREEN_TOP
 10
30.825000
 20
21.875000
 40
0.300000
 41
0.300000
 42
0.000000
  0
SEQEND
  0
POLYLINE
  8
BG_SILKSCREEN_TOP
 66
1
 70
0
 40
0.000000
 41
0.000000
 39
0.000000
  0
VERTEX
  8
BG_SILKSCREEN_TOP
 10
29.775000
 20
22.825000
 40
0.300000
 41
0.300000
 42
0.000000
  0
VERTEX
  8
BG_SILKSCREEN_TOP
 10
29.775000
 20
21.875000
 40
0.300000
 41
0.300000
 42
0.000000
  0
SEQEND
  0
POLYLINE
  8
BG_SILKSCREEN_TOP
 66
1
 70
0
 40
0.000000
 41
0.000000
 39
0.000000
  0
VERTEX
  8
BG_SILKSCREEN_TOP
 10
40.475000
 20
21.875000
 40
0.300000
 41
0.300000
 42
0.000000
  0
VERTEX
  8
BG_SILKSCREEN_TOP
 10
39.425000
 20
21.875000
 40
0.300000
 41
0.300000
 42
0.000000
  0
SEQEND
  0
POLYLINE
  8
BG_SILKSCREEN_TOP
 66
1
 70
0
 40
0.000000
 41
0.000000
 39
0.000000
  0
VERTEX
  8
BG_SILKSCREEN_TOP
 10
40.475000
 20
22.825000
 40
0.300000
 41
0.300000
 42
0.000000
  0
VERTEX
  8
BG_SILKSCREEN_TOP
 10
40.475000
 20
21.875000
 40
0.300000
 41
0.300000
 42
0.000000
  0
SEQEND
  0
POLYLINE
  8
BG_SILKSCREEN_TOP
 66
1
 70
0
 40
0.000000
 41
0.000000
 39
0.000000
  0
VERTEX
  8
BG_SILKSCREEN_TOP
 10
31.150100
 20
4.550000
 40
0.000000
 41
0.000000
 42
0.000000
  0
VERTEX
  8
BG_SILKSCREEN_TOP
 10
31.150000
 20
4.550100
 40
0.000000
 41
0.000000
 42
0.000000
  0
SEQEND
  0
POLYLINE
  8
BG_SOLDERMASK_TOP
 66
1
 70
0
 40
0.000000
 41
0.000000
 39
0.000000
  0
VERTEX
  8
BG_SOLDERMASK_TOP
 10
31.200100
 20
4.550000
 40
0.000000
 41
0.000000
 42
0.000000
  0
VERTEX
  8
BG_SOLDERMASK_TOP
 10
31.200000
 20
4.550100
 40
0.000000
 41
0.000000
 42
0.000000
  0
SEQEND
  0
POLYLINE
  8
BG_SILKSCREEN_TOP
 66
1
 70
1
 40
0.000000
 41
0.000000
 39
0.000000
  0
VERTEX
  8
BG_SILKSCREEN_TOP
 10
10.028000
 20
27.156200
 40
0.000000
 41
0.000000
 42
0.000000
  0
VERTEX
  8
BG_SILKSCREEN_TOP
 10
10.028000
 20
27.456200
 40
0.000000
 41
0.000000
 42
0.000000
  0
VERTEX
  8
BG_SILKSCREEN_TOP
 10
11.428000
 20
27.456200
 40
0.000000
 41
0.000000
 42
0.000000
  0
VERTEX
  8
BG_SILKSCREEN_TOP
 10
11.428000
 20
27.156200
 40
0.000000
 41
0.000000
 42
0.000000
  0
SEQEND
  0
POLYLINE
  8
BG_SILKSCREEN_TOP
 66
1
 70
1
 40
0.000000
 41
0.000000
 39
0.000000
  0
VERTEX
  8
BG_SILKSCREEN_TOP
 10
9.693500
 20
42.564100
 40
0.000000
 41
0.000000
 42
0.000000
  0
VERTEX
  8
BG_SILKSCREEN_TOP
 10
9.693500
 20
42.264100
 40
0.000000
 41
0.000000
 42
0.000000
  0
VERTEX
  8
BG_SILKSCREEN_TOP
 10
10.193500
 20
42.264100
 40
0.000000
 41
0.000000
 42
0.000000
  0
VERTEX
  8
BG_SILKSCREEN_TOP
 10
10.193500
 20
41.764100
 40
0.000000
 41
0.000000
 42
0.000000
  0
VERTEX
  8
BG_SILKSCREEN_TOP
 10
10.493500
 20
41.764100
 40
0.000000
 41
0.000000
 42
0.000000
  0
VERTEX
  8
BG_SILKSCREEN_TOP
 10
10.493500
 20
42.264100
 40
0.000000
 41
0.000000
 42
0.000000
  0
VERTEX
  8
BG_SILKSCREEN_TOP
 10
10.993500
 20
42.264100
 40
0.000000
 41
0.000000
 42
0.000000
  0
VERTEX
  8
BG_SILKSCREEN_TOP
 10
10.993500
 20
42.564100
 40
0.000000
 41
0.000000
 42
0.000000
  0
VERTEX
  8
BG_SILKSCREEN_TOP
 10
10.493500
 20
42.564100
 40
0.000000
 41
0.000000
 42
0.000000
  0
VERTEX
  8
BG_SILKSCREEN_TOP
 10
10.493500
 20
43.064100
 40
0.000000
 41
0.000000
 42
0.000000
  0
VERTEX
  8
BG_SILKSCREEN_TOP
 10
10.193500
 20
43.064100
 40
0.000000
 41
0.000000
 42
0.000000
  0
VERTEX
  8
BG_SILKSCREEN_TOP
 10
10.193500
 20
42.564100
 40
0.000000
 41
0.000000
 42
0.000000
  0
SEQEND
  0
POLYLINE
  8
BG_SILKSCREEN_TOP
 66
1
 70
1
 40
0.000000
 41
0.000000
 39
0.000000
  0
VERTEX
  8
BG_SILKSCREEN_TOP
 10
39.078000
 20
29.531200
 40
0.000000
 41
0.000000
 42
0.000000
  0
VERTEX
  8
BG_SILKSCREEN_TOP
 10
39.078000
 20
29.831200
 40
0.000000
 41
0.000000
 42
0.000000
  0
VERTEX
  8
BG_SILKSCREEN_TOP
 10
40.478000
 20
29.831200
 40
0.000000
 41
0.000000
 42
0.000000
  0
VERTEX
  8
BG_SILKSCREEN_TOP
 10
40.478000
 20
29.531200
 40
0.000000
 41
0.000000
 42
0.000000
  0
SEQEND
  0
POLYLINE
  8
BG_SILKSCREEN_TOP
 66
1
 70
1
 40
0.000000
 41
0.000000
 39
0.000000
  0
VERTEX
  8
BG_SILKSCREEN_TOP
 10
38.868500
 20
40.614100
 40
0.000000
 41
0.000000
 42
0.000000
  0
VERTEX
  8
BG_SILKSCREEN_TOP
 10
38.868500
 20
40.314100
 40
0.000000
 41
0.000000
 42
0.000000
  0
VERTEX
  8
BG_SILKSCREEN_TOP
 10
39.368500
 20
40.314100
 40
0.000000
 41
0.000000
 42
0.000000
  0
VERTEX
  8
BG_SILKSCREEN_TOP
 10
39.368500
 20
39.814100
 40
0.000000
 41
0.000000
 42
0.000000
  0
VERTEX
  8
BG_SILKSCREEN_TOP
 10
39.668500
 20
39.814100
 40
0.000000
 41
0.000000
 42
0.000000
  0
VERTEX
  8
BG_SILKSCREEN_TOP
 10
39.668500
 20
40.314100
 40
0.000000
 41
0.000000
 42
0.000000
  0
VERTEX
  8
BG_SILKSCREEN_TOP
 10
40.168500
 20
40.314100
 40
0.000000
 41
0.000000
 42
0.000000
  0
VERTEX
  8
BG_SILKSCREEN_TOP
 10
40.168500
 20
40.614100
 40
0.000000
 41
0.000000
 42
0.000000
  0
VERTEX
  8
BG_SILKSCREEN_TOP
 10
39.668500
 20
40.614100
 40
0.000000
 41
0.000000
 42
0.000000
  0
VERTEX
  8
BG_SILKSCREEN_TOP
 10
39.668500
 20
41.114100
 40
0.000000
 41
0.000000
 42
0.000000
  0
VERTEX
  8
BG_SILKSCREEN_TOP
 10
39.368500
 20
41.114100
 40
0.000000
 41
0.000000
 42
0.000000
  0
VERTEX
  8
BG_SILKSCREEN_TOP
 10
39.368500
 20
40.614100
 40
0.000000
 41
0.000000
 42
0.000000
  0
SEQEND
  0
POLYLINE
  8
MA_NCLEGEND-1-2
 66
1
 70
1
 40
0.000000
 41
0.000000
 39
0.000000
  0
VERTEX
  8
MA_NCLEGEND-1-2
 10
1.560000
 20
-39.050000
 40
0.000000
 41
0.000000
 42
0.000000
  0
VERTEX
  8
MA_NCLEGEND-1-2
 10
1.560000
 20
-3.150000
 40
0.000000
 41
0.000000
 42
0.000000
  0
VERTEX
  8
MA_NCLEGEND-1-2
 10
28.560000
 20
-3.150000
 40
0.000000
 41
0.000000
 42
0.000000
  0
VERTEX
  8
MA_NCLEGEND-1-2
 10
28.560000
 20
-39.050000
 40
0.000000
 41
0.000000
 42
0.000000
  0
SEQEND
  0
TEXT
  8
BG_SILKSCREEN_TOP
 10
30.350000
 20
23.100000
 11
0.000000
 21
0.000000
 40
0.600000
 41
1.166667
 50
0.000000
  7
STANDARD
 71
0
 72
0
  1
20.04.24 REV.0
 73
0
  0
TEXT
  8
BG_SILKSCREEN_TOP
 10
32.850000
 20
24.300000
 11
0.000000
 21
0.000000
 40
0.600000
 41
1.166667
 50
0.000000
  7
STANDARD
 71
0
 72
0
  1
LH231B
 73
0
  0
TEXT
  8
MA_NCLEGEND-1-2
 10
26.210000
 20
-34.850000
 11
26.410000
 21
-34.850000
 40
0.600000
 41
1.166667
 50
0.000000
  7
STANDARD
 71
0
 72
1
  1
1
 73
0
  0
TEXT
  8
MA_NCLEGEND-1-2
 10
20.510000
 20
-34.850000
 11
20.710000
 21
-34.850000
 40
0.600000
 41
1.166667
 50
0.000000
  7
STANDARD
 71
0
 72
1
  1
NON-PLATED
 73
0
  0
TEXT
  8
MA_NCLEGEND-1-2
 10
11.660000
 20
-34.850000
 11
11.860000
 21
-34.850000
 40
0.600000
 41
1.166667
 50
0.000000
  7
STANDARD
 71
0
 72
1
  1
6.0
 73
0
  0
TEXT
  8
MA_NCLEGEND-1-2
 10
26.210000
 20
-25.850000
 11
26.410000
 21
-25.850000
 40
0.600000
 41
1.166667
 50
0.000000
  7
STANDARD
 71
0
 72
1
  1
4
 73
0
  0
TEXT
  8
MA_NCLEGEND-1-2
 10
20.510000
 20
-25.850000
 11
20.710000
 21
-25.850000
 40
0.600000
 41
1.166667
 50
0.000000
  7
STANDARD
 71
0
 72
1
  1
NON-PLATED
 73
0
  0
TEXT
  8
MA_NCLEGEND-1-2
 10
11.660000
 20
-25.850000
 11
11.860000
 21
-25.850000
 40
0.600000
 41
1.166667
 50
0.000000
  7
STANDARD
 71
0
 72
1
  1
3.4
 73
0
  0
TEXT
  8
MA_NCLEGEND-1-2
 10
26.210000
 20
-16.850000
 11
26.410000
 21
-16.850000
 40
0.600000
 41
1.166667
 50
0.000000
  7
STANDARD
 71
0
 72
1
  1
4
 73
0
  0
TEXT
  8
MA_NCLEGEND-1-2
 10
20.510000
 20
-16.850000
 11
20.710000
 21
-16.850000
 40
0.600000
 41
1.166667
 50
0.000000
  7
STANDARD
 71
0
 72
1
  1
NON-PLATED
 73
0
  0
TEXT
  8
MA_NCLEGEND-1-2
 10
11.660000
 20
-16.850000
 11
11.860000
 21
-16.850000
 40
0.600000
 41
1.166667
 50
0.000000
  7
STANDARD
 71
0
 72
1
  1
2.0
 73
0
  0
TEXT
  8
MA_NCLEGEND-1-2
 10
26.210000
 20
-11.750000
 11
26.410000
 21
-11.750000
 40
0.600000
 41
1.166667
 50
0.000000
  7
STANDARD
 71
0
 72
1
  1
QTY
 73
0
  0
TEXT
  8
MA_NCLEGEND-1-2
 10
20.510000
 20
-11.750000
 11
20.710000
 21
-11.750000
 40
0.600000
 41
1.166667
 50
0.000000
  7
STANDARD
 71
0
 72
1
  1
PLATED
 73
0
  0
TEXT
  8
MA_NCLEGEND-1-2
 10
11.660000
 20
-11.750000
 11
11.860000
 21
-11.750000
 40
0.600000
 41
1.166667
 50
0.000000
  7
STANDARD
 71
0
 72
1
  1
SIZE
 73
0
  0
TEXT
  8
MA_NCLEGEND-1-2
 10
3.860000
 20
-11.750000
 11
4.060000
 21
-11.750000
 40
0.600000
 41
1.166667
 50
0.000000
  7
STANDARD
 71
0
 72
1
  1
FIGURE
 73
0
  0
TEXT
  8
MA_NCLEGEND-1-2
 10
14.860000
 20
-10.550000
 11
15.060000
 21
-10.550000
 40
0.600000
 41
1.166667
 50
0.000000
  7
STANDARD
 71
0
 72
1
  1
ALL UNITS ARE IN MILLIMETERS
 73
0
  0
TEXT
  8
MA_NCLEGEND-1-2
 10
14.860000
 20
-4.050000
 11
15.060000
 21
-4.050000
 40
0.600000
 41
1.166667
 50
0.000000
  7
STANDARD
 71
0
 72
1
  1
DRILL CHART: TOP to BOTTOM
 73
0
  0
TEXT
  8
BG_SILKSCREEN_TOP
 10
29.950000
 20
25.600000
 11
0.000000
 21
0.000000
 40
0.600000
 41
1.166667
 50
0.000000
  7
STANDARD
 71
0
 72
0
  1
STRADA IP 16-MX
 73
0
  0
TEXT
  8
BG_SILKSCREEN_TOP
 10
24.500000
 20
52.350000
 11
0.000000
 21
0.000000
 40
1.000000
 41
1.250000
 50
0.000000
  7
STANDARD
 71
0
 72
0
  1
Tc
 73
0
  0
INSERT
  8
MA_NCLEGEND-1-2
  2
FIGURE_CIRCLE
 10
4.060000
 20
-34.550000
 41
3.600000
 42
6.000000
 50
0.000000
  0
TEXT
  8
MA_NCLEGEND-1-2
 10
2.060000
 20
-36.050000
 11
4.060000
 21
-34.550000
 40
3.000000
 41
1.000000
 50
0.000000
  7
STANDARD
 71
0
 72
1
  1
C
 73
2
  0
INSERT
  8
MA_NCLEGEND-1-2
  2
FIGURE_CIRCLE
 10
4.060000
 20
-25.550000
 41
3.400000
 42
3.400000
 50
0.000000
  0
TEXT
  8
MA_NCLEGEND-1-2
 10
2.926667
 20
-26.400000
 11
4.060000
 21
-25.550000
 40
1.700000
 41
1.000000
 50
0.000000
  7
STANDARD
 71
0
 72
1
  1
B
 73
2
  0
INSERT
  8
MA_NCLEGEND-1-2
  2
FIGURE_CIRCLE
 10
4.060000
 20
-16.550000
 41
2.000000
 42
2.000000
 50
0.000000
  0
TEXT
  8
MA_NCLEGEND-1-2
 10
3.393333
 20
-17.050000
 11
4.060000
 21
-16.550000
 40
1.000000
 41
1.000000
 50
0.000000
  7
STANDARD
 71
0
 72
1
  1
A
 73
2
  0
ENDSEC
  0
EOF
